» » »

Misc Television, The Office Tabs (ver.3)

Artists:  A B C D E F G H I J K L M N O P Q R S T U V W X Y Z # 

The Office Tabs (ver.3)

Misc Television Tabs
Rating:
0/5 (0 votes)
The Office lessons Tabs too difficult? Try these video lessons and learn fast
                (Theme)

I would like to give credit to gravo, because his tab heavily influenced this tab


  G            Bm           Em            C
|-3---3---3----2---2---2----0---0---0-------------------|
|---3-------3----3-------3----0-------0---1--1--1p0---0-|
|-0-------0----4-------4----------------------------2---|
|---------------------------2-------2-------------------|
|-----------------------------------------3-----3-------|
|-------------------------------------------------------|


  G            Bm           Em            C
|-3---3---3----2---2---2----0---0---0-------------------|
|---3-------3----3-------3----0-------0---1--1--1p0---0-|
|-0-------0----4-------4----------------------------2---|
|---------------------------2-------2-------------------|
|-----------------------------------------3-----3-------|
|-------------------------------------------------------|


Here's the part for the accordion-sounding instrument:

  G          Bm             Em      C
|------15-------14-15-14----12--------------------------|
|------------------------15---------13--13--13p12----12-|
|-12----------------------------------------------14----|
|-------------------------------------------------------|
|-------------------------------------------------------|
|-------------------------------------------------------|

  G          Bm             Em                 C
|------15-------14-15-17-14----------------------------------------|
|---------------------------17----15h17-15-12--13--13--13p12----12-|
|-12---------------------------------------------------------14----|
|------------------------------------------------------------------|
|------------------------------------------------------------------|
|------------------------------------------------------------------|


Here is where the guitar comes in. I'm very unsure about the accuracy of this part,
the guitar is hard to hear especially because I just heard the theme 10 minutes ago
and I can't really listen to it again.

  G         Bm        Em        C
|----------------------------------------------|
|-------------------------------1--1--1-1-1-1--|
|----4---------4---------0------0--0--0-0-0-0--|
|----5---------4---------2------2--2--2-2-2-2--|
|----5------2------------2------3--3--3-3-3-3--|
|-3-------------------0------------------------|
            

comments powered by Disqus
↑ Back to top | Misc Television Tabs for The Office. Lyrics for acoustic guitar and electric guitar. Tablatures and chords are parodies/interpretations of the original songs. You may use it for private study, scholarship, research or language learning purposes only