>
 >
The Office Theme 1

The Office Theme 1 Guitar Tabs

Misc Television - The Office Theme 1 chords, tabs, tablatures, lyrics

Guitar lessons | Add/correct | Request | Top 50 tabs Artists:  A B C D E F G H I J K L M N O P Q R S T U V W X Y Z 0-9

The Office Theme 1 Guitar Tabs – Misc Television

CD, Sheet music, Poster

Do you like The Office Theme 1? Share with your friends now
Bass TabsBass Tabs v2Bass Tabs v3TabsTabs v2Tabs v3Tabs v4Tabs v5Tabs v6
-------------------------------------------------------------------------------
                 THE OFFICE (NBC) THEME SONG – MISC TELEVISION
-------------------------------------------------------------------------------

Arranged for 1 guitar.
Thanks to Gravo for doing the first tab.  
Gravo’s version helped greatly into putting together my own arrangement.

Tuning: Standard EADGBe

Intro:
E :----------------|------------------|------------------|------------------|
B :--8---8---8-----|--7---7----7------|---8---8---8------|------------------|
G :----7-------7---|----7--------7----|-----9-------9----|------------------|
D :----------------|------------------|------------------|--10--10--10--9---|
A :----------------|------------------|------------------|------------------|
E :----------------|------------------|------------------|------------------|

E :----------------|------------------|------------------|------------------|
B :----------------|------------------|------------------|------------------|
G :----------------|------------------|------------------|------------------|
D :--7--9----------|------------------|------------------|------------------|
A :----------------|------------------|------------------|------------------|
E :----------------|------------------|------------------|------------------|

Enter Organ:

E :----------------|------------------|------------------|------------------|
B :----------8-----|-7--8--7----------|------------------|------------------|
G :----------------|----------7--9----|------------------|------------------|
D :----------------|------------------|--10--10--10--9---|-7--9-------------|
A :------10--------|------------------|------------------|------------------|
E :----------------|------------------|------------------|------------------|

E :----------------|------------------|------------------|------------------|
B :----------8-----|-7--8--10---------|------------------|------------------|
G :----------------|------------7--9--|--7--9--7---------|------------------|
D :----------------|------------------|-----------9---10-|-10--10--9--7--9--|
A :------10--------|------------------|------------------|------------------|
E :----------------|------------------|------------------|------------------|

E :----------------|------------------|------------------|------------------|
B :----------8-----|-7--8--7----------|------------------|------------------|
G :----------------|----------7--9----|------------------|------------------|
D :----------------|------------------|--10--10--10--9---|-7--9-------------|
A :------10--------|------------------|------------------|------------------|
E :----------------|------------------|------------------|------------------|

E :----------------|------------------|------------------|------------------|
B :----------8-----|-7--8--10---------|------------------|------------------|
G :----------------|------------7--9--|--7--9--7---------|------------------|
D :----------------|------------------|-----------9---10-|-10--10--9--7--9--|
A :------10--------|------------------|------------------|------------------|
E :----------------|------------------|------------------|------------------|

End on any of these 3 chords (I prefer the first one):

E :----------------| E :---3----------| E :----3---------|
B :----------------| B :---3----------| B :----3---------|
G :---12-----------| G :---0----------| G :----4---------|
D :---12-----------| D :---0----------| D :----5---------|
A :---10-----------| A :---2----------| A :----5---------|
E :----------------| E :---3----------| E :----3---------|


Background Chords:
G, B/Bm, Em, C





Comments


Popular Misc Television tabs & chords
Meow Mix Theme 2 Bass Tabs
Family Guy - Butter On A Poptart Chords
Ministry Of Mayhem Theme Chords
Monster Rancher - Frei Wie Der Wind German Opening Chords
3rd Rock Theme Tabs
Jerry Springer Tabs
Mac Gvyer Theme Tabs
Sesame Street 1 Tabs
Wayne S World Theme Tabs
Xfl Theme Tabs


Song lyrics



↑ Back to top | Tablatures and chords are parodies/interpretations of the original songs. You may use it for private study, scholarship, research or language learning purposes only
© 2014 AZChords.com Contact us | Privacy policy | DMCA | Add/correct tabs | Request tabs | Top 50 tabs