» » »

The Office Bass tabs (ver.1)

Artists:  A B C D E F G H I J K L M N O P Q R S T U V W X Y Z # 

The Office Bass tabs (ver.1)

Misc Television
Rating:
0/5 (0 votes)

Hard to play? Try these video lessons and learn fast.
                (Theme)
Come in after the piano.
-----------------------------------------|
-----------------------------------------|

Repeat:
G|------------------------------------------------------------------|
D|*----------------------------------------------------------------*|
A|*--------------------------------7-7-7-7-7-7-7-7-3-3-3-3-3-3-2-2-*|
E|-3-3-3-3-3-3-3-3-7-7-7-7-7-7-7-7----------------------------------|

Ending
G|----------------------------------------------------------------------|
D|----------------------------------------------------------------------|
A|---------------------------------7-7-7-7-7-7-7-7-3-3-3-3-3-3-2-2------|
E|-3-3-3-3-3-3-3-3-7-7-7-7-7-7-7-7---------------------------------3~~~-|

-----------------------------------------|
-----------------------------------------|
| /  slide up
| \  slide down
| h  hammer-on
| b  bend note
| p  pull-off
| ~  let ring
| +  harmonic
| x  mute note
| s  slap note
            
Hard to play? Try these video lessons and learn fast. | Correct




comments powered by Disqus
↑ Back to top | Tablatures and chords are parodies/interpretations of the original songs. You may use it for private study, scholarship, research or language learning purposes only