» » »

Misc Television, The Lonely Man Tabs (ver.1)

Artists:  A B C D E F G H I J K L M N O P Q R S T U V W X Y Z # 

The Lonely Man Tabs (ver.1)

Misc Television Tabs
 Rating:
4/5 (4 votes)
The Lonely Man lessons Tabs too difficult? Try these video lessons and learn fast
1
                The Lonely Man (The Incredible Hulk Theme)
Standard tuning



e|-----1-0-|-3-1-0-1-|-----1-0-|-1-------|
B|---------|---------|---------|---------|
G|---2-----|---------|---------|---------|
D|-0-------|---------|---2-----|-----3-2-|
A|---------|-----0---|-0-------|---0-----|
E|---------|---------|---------|---------|

e|-----1-0-|-3-1-0-1-|---------|---------|
B|---------|---------|-3-------|-2-------|
G|---2-----|---------|-1-------|-0-------|
D|-0-------|---------|-3-------|-2-------|
A|---------|-----0---|-1-------|-0-------|
E|---------|---------|---------|---------|

e|---1-0-1-|---------|---1-0---|---------|
B|---------|---------|-------6-|---------|
G|-2-------|---------|-2-------|---------|
D|-------0-|---3-2-3-|---------|---3-2-3-|
A|---------|-0-------|-------4-|---------|
E|---------|---------|---------|-5-------|

e|-------3-|---------|-1-0-1---|---------|
B|---6-5---|---------|---------|---3-1-3-|
G|-2-------|---------|-------2-|---------|
D|---------|-7-3-2-3-|---------|-3-------|
A|-------3-|---------|-------1-|---------|
E|---------|---------|---------|---------|

e|-5-4-3---|-----3-5-|-11-10-8---|-10------|
B|-----3---|---1-----|-----------|------10-|
G|-3-------|-0-------|-----------|----7-10-|
D|-------1-|---------|-------0-0-|--9------|
A|-----0---|---------|-----------|---------|
E|---------|---------|-----------|---------|

e|-5---6---|-------0-|-------2-|-------3-|
B|-4-------|-------3-|---------|-------3-|
G|-2-------|---2-3---|-3-2-----|---2-3---|
D|---------|-0-------|-----0---|-0-------|
A|---------|---------|---------|---------|
E|-----3---|---------|-------3-|-------3-|

e|---6-5-6-|---------|---6-5-6-|---8-----|
B|-3-------|---------|-3-------|---------|
G|-------0-|---0-2-3-|---------|-0---0---|
D|---------|-0-----3-|---------|---------|
A|---------|---------|-------7-|---------|
E|---------|---------|---------|-------8-|


e|-------5-|---------|----------|---6-----|
B|---------|---------|---10-8-6-|---------|
G|-0-5---5-|-------2-|-5-10-9-7-|---------|
D|-------3-|---3-5-2-|--------0-|-------8-|
A|---------|-3-------|----------|---------|
E|---------|---------|----------|---------|

e|-6--------|-----3---|-3---3---|-----6-4-|
B|-6-10-8---|-8-6-----|-4-6-4---|---4-----|
G|----------|-------3-|---7-----|---------|
D|----8---8-|-----0---|-------5-|-6-------|
A|------6---|---------|-----3---|---------|
E|----------|---------|---------|---------|

e|---------|-5-----5-|-1-----1-|-0-1-----|
B|-8-7-6---|---------|---3-----|---------|
G|---8-5---|---------|-----2---|-----2---|
D|-6-------|---------|---0-----|---------|
A|-----0---|---------|---------|---------|
E|---------|---------|---------|---------|
                     
e|---------|---------|---------||
B|-3-------|---------|-----3---||
G|---------|---------|---------||
D|-------3-|-2---3---|---------||
A|-----0---|---------|-0-------||
E|---------|---------|---------||
               Harmonic on the last note
            
Submit corrections

comments powered by Disqus
↑ Back to top | Misc Television Tabs for The Lonely Man. Lyrics for acoustic guitar and electric guitar. 1 Tablatures and chords are parodies/interpretations of the original songs. You may use it for private study, scholarship, research or language learning purposes only