>
 >
The Justice League

The Justice League Guitar Tabs

Misc Television - The Justice League chords, tabs, tablatures, lyrics

Guitar lessons | Add/correct | Request | Top 50 tabs Artists:  A B C D E F G H I J K L M N O P Q R S T U V W X Y Z 0-9

The Justice League Guitar Tabs – Misc Television

CD, Sheet music, Poster

Do you like The Justice League? Share with your friends now
Tabs
Theme - Justice League Unlimited


E--------------------------------------------------------------13-13-13-13-|
B--------------------------------------------------------------------------|
G--------------------------------------------------15-15-15-15-------------|
D----3-----11----18--17--15--15-17-18--18--18--18--------------------------|
A--------------------------------------------------------------------------|
E-1-----9------------------------------------------------------------------|

E------------------------------------------|
B------------------------------------------|
G------------------------------------------|
D-----3-1-0-1-0----------15-13-12-13-12----|
A---3-----------1-----15----------------13-|
E-1----------------13----------------------|

E---------------------------------------|
B---------------------------------------|
G---------------------------------------|
D-15-17-18--17-15-13--12-13-15----------|
A------------------------------13-13h15-|
E---------------------------------------|

E-----------------------------------------|
B-----------------------------------------|
G----------15--------------------------17-|
D-15-17-18----17-18--15-17-18-18-17-13----|
A-----------------------------------------|
E-----------------------------------------|

E-13-15-16--15-13-11--10-11-13----------|
B------------------------------11-11h13-|
G---------------------------------------|
D---------------------------------------|
A---------------------------------------|
E---------------------------------------|

E-13-15-16-18-16-15--13-15-16-16-15----20-|
B-----------------------------------16----|
G-----------------------------------------|
D-----------------------------------------|
A-----------------------------------------|
E-----------------------------------------|

E------------------------------------------|
B------------------------------------------|
G------------------------------------------|
D-----3-1-0-1-0----------15-13-12-13-12----|
A---3-----------1-----15----------------13-|
E-1----------------13----------------------|

E--------------------------|
B--------------------------|
G--------------------------|
D-3-1-0--0-1-0-1-0------X2-|
A------------------1-------|
E--------------------------|

E----------------------------------------|
B----------------------------------------|
G----------------------------------------|
D-15-13-12--12-13-12-13-12---------------|
A--------------------------13------------|
E-------------------------------------13-|





Comments


Popular Misc Television tabs & chords
Doctor Who Theme Bass Tabs
Five Star Theme Bass Tabs
Family Guy - I Cant Poop In Strange Places Chords
Bjornes Magasin Theme Tabs
Coca Cola Theme 1 Tabs
Family Guy Theme 6 Tabs
Jeopardy Theme Tabs
Nbc Tabs
Roobarb Custard Tabs
Transformers Cartoon Theme Tabs


Song lyrics



↑ Back to top | Tablatures and chords are parodies/interpretations of the original songs. You may use it for private study, scholarship, research or language learning purposes only
© 2014 AZChords.com Contact us | Privacy policy | DMCA | Add/correct tabs | Request tabs | Top 50 tabs