» » »

That 70s Show Tabs (ver.1)

Artists:  A B C D E F G H I J K L M N O P Q R S T U V W X Y Z # 

That 70s Show Tabs (ver.1)

Misc Television
Rating:
0/5 (0 votes)

Hard to play? Try these video lessons and learn fast.
                (Theme)


e|------------------------------------------|
B|------5----------------(5)----------------|
G|--5-5-5--------------5-(5)-(5)------------|
D|--5-5-5--------------5-(5)-(5)------------|
A|--5-5-3--------5-6-7-5-(3)-(5)-------0-1-2|
E|--3------5-6-7-------3-----(3)-0-1-2------|

Hangin' out

e|------------------------------------------|
B|-----------------5-------------------5----|
G|--------------5--5-5--------------5--5-5--|
D|--------------5--5-5--------------5--5-5--|
A|-------0-1-2--5--3-5--------0-1-2-5--3-5--|
E|-0-1-2--------3----3--0-1-2-------3----3--|

Down the street

e|------------------------------------------|
B|-----------------5-------------------5----|
G|--------------5--5-5--------------5--5-5--|
D|--------------5--5-5--------------5--5-5--|
A|-------0-1-2--5--3-5--------0-1-2-5--3-5--|
E|-0-1-2--------3----3--0-1-2-------3----3--|

Same old thing

e|------------------------------------------|
B|-----------------5-------------------5----|
G|--------------5--5-5--------------5--5-5--|
D|--------------5--5-5--------------5--5-5--|
A|-------0-1-2--5--3-5--------0-1-2-5--3-5--|
E|-0-1-2--------3----3--0-1-2-------3----3--|

We did last week

e|------------------------------------------|
B|-----------------5-------------------5----|
G|--------------5--5-5--------------5--5-5--|
D|--------------5--5-5--------------5--5-5--|
A|-------0-1-2--5--3-5--------0-1-2-5--3-5--|
E|-0-1-2--------3----3--0-1-2-------3----3--|

Not a thing to do

e|----------------------|
B|----------------------|
G|----------------------|
D|-5--4--2---4-5--4--2--|
A|-5--4--2---4-5--4--2--|
E|-3--2--0---2-3--2--0--|

We're all alright,
We're all alright!

e|------------------------------------------|
B|-----------------5-------------------5----|
G|--------------5--5-5--------------5--5-5--|
D|--------------5--5-5--------------5--5-5--|
A|-------0-1-2--5--3-5--------0-1-2-5--3-5--|
E|-0-1-2--------3----3--0-1-2-------3----3--|

Hello Wisconsin!

e|---------------------|
B|-----------------5---|
G|--------------5--5-5-|
D|--------------5--5-5-| (Right before Ashton Kutcher says "Hello Wisconsin")
A|-------0-1-2--5--3-5-|
E|-0-1-2--------3----3-|


| /  slide up
| \  slide down
| h  hammer-on
| p  pull-off
| ~  vibrato
|()  harmonic
| x  Mute note
===============================================================================
            
Hard to play? Try these video lessons and learn fast. | Correct




comments powered by Disqus
↑ Back to top | Tablatures and chords are parodies/interpretations of the original songs. You may use it for private study, scholarship, research or language learning purposes only