» » »

Speak Softly Love Tabs (ver.1)

Artists:  A B C D E F G H I J K L M N O P Q R S T U V W X Y Z # 

Speak Softly Love Tabs (ver.1)

Misc Television
Rating:
0/5 (0 votes)

Hard to play? Try these video lessons and learn fast.
                I think the notes are self
explanatory, and hope I didnt screw up anywhere while

SPEAK SOFTLY LOVE- thorn Birds Theme  (F. Rodrigues' version)
    12 lines (everything is straight with Monaco 12 font)

1>
E|-----------0------------0---|-----------------------------|
B|--------0------------0------|-----------0-----------1-----|
G|-----0------------0---------|--------0-----------2--------|
D|--4------------2------------|-----2-----------2-----------|
A|----------------------------|--3-----------0--------------|
E|----------------------------|-----------------------------|

2>
E|----------------------------|--------0--3-----------------|
B|-----------0---1---0--------|-----0-----------------------|
G|--------2-------------------|-----------------------------|
D|-----1----------------------|-----------------------------|
A|--2-------------------------|-----------------------------|
E|----------------------------|--0--------------------------|

3>
E|--2--0--3--0--2--0----------|--------------------0---3----|
B|--------------------1---3---|--0--------------0-----------|
G|--------------------2-------|-----------------------------|
D|--------2--------2----------|--------4--2-----------------|
A|-----2--------0-------------|-----2-----------------------|
E|--0-------------------------|--0-----------0--------------|

4>
E|--2--0--3--0--2--0----------|-----------------------------|
B|--------------------0-------|--------------1---4----------|
G|--------------0--------3----|--2--------2-----------------|
D|----------------------------|-----------------------------|
A|-----2--3-------------------|--3--2--0--------------------|
E|--0-----------0-------------|-----------------------------|

5>
E|--2-------------------------|--0--------------------------|
B|--------1-----------1---4---|-----------------------3-----|
G|-----------2-----2----------|--------------------0--------|
D|-----2----------------------|--------4--2-----2-----------|
A|--0-----------0-------------|-----2-----------------------|
E|----------------------------|--0-----------0--------------|

6>
E|----------------------------|-------------0--0------------|
B|--1--0--3--1-----1/--0--0---|-------------------4---------|
G|----------------2/----------|-----------------------------|
D|---------------1/---------1-|--2--------------------------|
A|--0-----------2/------------|-----------------------------|
E|----------------------------|--0--3--2--0-----------------|

7>                                               (F)
E|-----------------2--0-------|-----------------------------|
B|--3-----1--------1--1--1----|--0---------0-3-0------------|
G|--------------------2--2----|------0------------2---------|
D|--0--4-----4--0-------------|----0---0--------------3-----|
A|----------------------------|---------------------3---3---|
E|----------------------------|--3-------3--------1-------1-|

8>
E|----------------0--3--------|--2--0--3--0--2--0-----------|
B|----1-----0--0--------------|--------------------1--3-----|
G|--2---3---2-----------------|--------------------2--------|
D|----------1-----------------|--------2--------2-----------|
A|----------2-----------------|-----2--------0--------------|
E|----------------------------|--0--------------------------|

9>
E|--------------------0--3----|--2--0--3--0--2--0-----------|
B|--0--------------0----------|--------------------0--------|
G|----------------------------|--------------0---------3----|
D|--------4-------------------|-----------------------------|
A|-----2-----2----------------|-----2--2--------------------|
E|--0-----------0-------------|--0-----------0--------------|

10>
E|----------------------------|--2--------------------------|
B|---------------1---4--------|--------1------------1---4---|
G|--2---------2---------------|-----------2-----2-----------|
D|----------------------------|-----2-----------------------|
A|--3--2--0-------------------|--0-----------0--------------|
E|----------------------------|-----------------------------|

11>
E|--0-------------------------|-----------------------------|
B|-----------------------3----|--1--0--3--1--1--0--0--4-----|
G|--------------------0-------|--------------2--------------|
D|--------4--2-----2----------|-----------------------------|
A|-----2----------------------|--0-----------------2--------|
E|--0-----------0-------------|-----------------------------|

12>
E|--0------------0------------|--0--------------------------|
B|------------------------0---|-----------------------------|
G|---------------------0------|-----------------------------|
D|--------4--2------2---------|--------4---2----------------|
A|-----2---------3------------|-----2-----------------------|
E|--0-------------------------|--0-------------0------------|
            
Hard to play? Try these video lessons and learn fast. | Correct




comments powered by Disqus
↑ Back to top | Tablatures and chords are parodies/interpretations of the original songs. You may use it for private study, scholarship, research or language learning purposes only