» » »

Misc Television, South Park Tabs (ver.1)

Artists:  A B C D E F G H I J K L M N O P Q R S T U V W X Y Z # 

South Park Tabs (ver.1)

Misc Television Tabs
 Rating:
4/5 (4 votes)
South Park lessons Tabs too difficult? Try these video lessons and learn fast
                South Park Theme	      - Les Claypool
				================


Guitar part
|x-x-x-x--9---x-x----------------------|--------------------------/15-------|
|x-x-x-x-13---x-x-13-13-14-------------|10-10-10---9-9-9---7------/14-------|
|----------------------------11---14---|-8--8--8---7-7-7---5----------------|
|--------------------------------------|------------------------------------|
|--------------------------------------|------------------------------------|
|--------------------------------------|------------------------------------|
Bass part
|--------------------------------------|------------------------------------|
|--------------------------------------|------------------------------------|
|--------------------------------------|------------------------------------|
|--------------------------------------|------------------------------------|


| ------------------------------------|-------------------------------------|
| ------------------------------------|-------------------------------------|
|*-x--11---x---11---x---11---x---11---|-x---11---x---11---x---11---x---11---|
|*-x--10---x---10---x---10---x---10---|-x---10---x---10---x---10---x---10---|
| ------------------------------------|-------------------------------------|
| ------------------------------------|-------------------------------------|

| ------------------------------------|-------------------------------------|
|*------------------------------------|-------------------------------------|
|*/9---------------/9-----------------|/9----------------/9-----------------|
| --------/8----------------/8--------|---------/8----------------/8--------|
LES: I'm going down to South Park gonna have myself a time.
     Going down to South Park gonna leave my woes behind.

             ~~~~~~            ~~~~~~             ~~~~~~           ~~~~~~~
|------------------------------------|------------------------------------ ||
|10---10---10------13---13---13------|10---10---10------13---13---13------ ||
|-8----8----8------11---11---11------|-8----8----8------11---11---11------*||
|------------------------------------|------------------------------------*||
|------------------------------------|------------------------------------ ||
|------------------------------------|------------------------------------ ||

|------------------------------------|------------------------------------ ||
|-7----7----7------10---10---10------|-7----7----7------10---10---10------*||
|------------------------------------|------------------------------------*||
|------------------------------------|------------------------------------ ||
STAN & KYLE: Friendly faces everywhere humble folks without temptation.
CARTMAN :    Ample parking day or night people shouting "Howdy neighbor!"


|x-x-x-x--9---x-x-----------------------|x-x-x-x--9---9-9-12-12-13-13-12-12-|
|x-x-x-x-13---x-x-13-13-14--------------|x-x-x-x-13-------------------------|
|-----------------------------11---14---|-----------------------------------|
|---------------------------------------|-----------------------------------|
|---------------------------------------|-----------------------------------|
|---------------------------------------|-----------------------------------|

|---------------------------------------|-----------------------------------|
|---------------------------------------|-----------------------------------|
|9----------------/9-------------------/|9-----------/9---------------------|
|---------/8-------------------/8-------|-------/8--------------/8----------|
LES:  Heading on up to South Park gonna see if I can't unwind.



|11---11---11------14---14---14------|11---11---11------14---14---14------|
|10---10---10------13---13---13------|10---10---10------13---13---13------|
|------------------------------------|------------------------------------|
|------------------------------------|------------------------------------|
|------------------------------------|------------------------------------|
|------------------------------------|------------------------------------|

|------------------------------------|------------------------------------|
|-7----7----7------10---10---10------|-7----7----7------10---10---10------|
|------------------------------------|------------------------------------|
|------------------------------------|------------------------------------|
KENNY: I like girls with big fat T!@#$&s. I like girls with big V@%#!*s.
(These lyrics unconfirmed)



|-x-x-x-x--9---x-x-----------------------|-x-x--9----x-x--9----9-------x----|
|-x-x-x-x-13---x-x-13-13-14--------------|-x-x-13----x-x-13---13-------x----|
|------------------------------11---14---|----------------------------------|
|----------------------------------------|----------------------------------|
|----------------------------------------|----------------------------------|
|----------------------------------------|----------------------------------|

|----------------------------------------|----------------------------------|
|----------------------------------------|----------------------------------|
|/9----------------/9--------------------|9-----------------------9---9-----|
|---------/8-------------------/8--------|----------8-----------------------|
LES:  So come on down to South Park and meet some friends of mine.
            
Submit corrections

comments powered by Disqus
↑ Back to top | Misc Television Tabs for South Park. Lyrics for acoustic guitar and electric guitar. Tablatures and chords are parodies/interpretations of the original songs. You may use it for private study, scholarship, research or language learning purposes only