» » »

Seame Street Tabs (ver.1)

Artists:  A B C D E F G H I J K L M N O P Q R S T U V W X Y Z # 

Seame Street Tabs (ver.1)

Misc Television
Rating:
0/5 (0 votes)

Hard to play? Try these video lessons and learn fast.
                format: tab for notes but  not chords


e---------------------------------------------------
B---------------------------------------------------
G----5-2------0-2-----5-2---------5-2------0-2-4-5-7
D--------3--3-------------3-----------3--3----------
A---------------------------------------------------
E---------------------------------------------------


e---------------------------------------------------
B------------------------------1-1-1----------------
G---5-7-8-7-5-2-0----0-2-3-2-0----------------------
D---------------------------------------------------
A---------------------------------------------------
E---------------------------------------------------


you'll need to figure out the rhythm. not too tough
though.
            
Hard to play? Try these video lessons and learn fast. | Correct




comments powered by Disqus
↑ Back to top | Tablatures and chords are parodies/interpretations of the original songs. You may use it for private study, scholarship, research or language learning purposes only