» » »

Seinfield Bass tabs (ver.1)

Artists:  A B C D E F G H I J K L M N O P Q R S T U V W X Y Z # 

Seinfield Bass tabs (ver.1)

Misc Television
Rating:
0/5 (0 votes)

Hard to play? Try these video lessons and learn fast.
                "(1)
I have seen several versions of this bass tab on the net, but not one of them 
has come even slightly close to being accurate.  So here is the full song, 
completely accurate.

Seinfeld Theme
Bass Tab
Five-String Bass Tuning : B E A D G     Time Signature: 4/4

 |       |       |       |        |       |       |       |        
|--------------------------------|7-------4-----------------------|
|--------------------------------|----------------7-b(8)--5-------|
|--------------------------------|--------------------------------|
|----------------------------0---|----0-----------------------0---|
|3-bend up to slowly----(5)------|--------------------------------|

 |       |       |       |        |       |       |       |        
|--------------------------------|--------------------------------|
|--------------------------------|--------------------------------|
|5-------2-----------------------|------------------------2-------|
|----0-----------5-b(6)--2-b(3)--|0-----------3sl-4---------------|
|--------------------------------|--------------------------------|

 |       |       |       |        |       |       |       |        
|--------------------------------|--------------------------------|
|--------------------------------|--------------------------------|
|5-------------------------------|--------------------------------|
|----------------4-----------5---|----5-------------------3-------|
|--------------------------------|--------------------------------|

 |       |       |       |        |       |       |       |        
|--------------------------------|--------------------------------|
|--------------------------------|----2---------------------------|
|--------------------------------|--------------------------------|
|2---------------1-----------0---|--------0-------2-------2-------|
|--------------------------------|--------------------------------|

 |       |       |       |        |       |       |       |        
|--------------------------------|--------------------------------|
|--------------------------------|----5---------------------------|
|--------------------------------|--------------------------------|
|3-----------4---------------5---|--------------------------------|
|--------------------------------|--------------------------------|

 |       |       |       |        |       |       |       |        
|--------------------------------|--------------------------------|
|--------------------------------|----2---------------------------|
|--------------------------------|------------------------2-------|
|--------------------------------|--------0-------3sl-4-----------|
|--------------------------------|--------------------------------|

 |       |       |       |        |       |       |       |        
|--------------------------------|--------------------------------|
|--------------------------------|--------------------------------|
|5-------------------------------|--------------------------------|
|----------------4-----------5---|----5-------------------3-------|
|--------------------------------|--------------------------------|

 |       |       |       |        |       |       |       |        
|--------------------------------|--------------------------------|
|--------------------------------|----2---------------------------|
|--------------------------------|--------------------------------|
|2---------------1-----------0---|--------0-------2-------2-------|
|--------------------------------|--------------------------------|

 |       |       |       |        |       |       |       |        
|--------------------------------|--------------------------------|
|--------------------------------|----5---------------------------|
|--------------------------------|--------------------------------|
|3-----------4---------------5---|--------------------------------|
|--------------------------------|--------------------------------|

 |       |       |       |        |       |       |       |        
|--------------------------------|--------------------------------|
|------------2-------------------|--------------------------------|
|--------------------------------|------------------------3-------|
|--------------------------------|1-----------4sl-5---------------|
|----------------4-bend to--(6)--|--------------------------------|

 |       |       |       |        |       |       |       |        
|--------------------------------|--------------------------------|
|--------------------------------|--------------------------------|
|6-------------------------------|--------------------------------|
|----------------5-----------6---|----6-------------------4-------|
|--------------------------------|--------------------------------|

 |       |       |       |        |       |       |       |        
|--------------------------------|--------------------------------|
|--------------------------------|----3---------------------------|
|--------------------------------|--------------------------------|
|3---------------2-----------1---|--------1-------3-------3-------|
|--------------------------------|--------------------------------|

 |       |       |       |        |       |       |       |        
|--------------------------------|--------------------------------|
|--------------------------------|----6---------------------------|
|--------------------------------|--------------------------------|
|4-----------5---------------6---|--------------------------------|
|--------------------------------|--------------------------------|

 |       |       |       |        |       |       |       |        
|--------------------------------|7-------4-----------------------|
|--------------------------------|----------------7-b(8)--5-------|
|--------------------------------|--------------------------------|
|----------------------------0---|----0-----------------------0---|
|--------------------------------|--------------------------------|

 |       |       |       |        |       |       |       |        
|--------------------------------|--------------------------------|
|--------------------------------|--------------------------------|
|5-------2-----------------------|------------------------4-------|
|----0-----------5-b(6)--2-b(3)--|2-----------5sl-6---------------|
|--------------------------------|--------------------------------|

 |       |       |       |        |       |       |       |        
|--------------------------------|--------------------------------|
|--------------------------------|--------------------------------|
|7-------------------------------|--------------------------------|
|----------------6-----------7---|----7-------------------5-------|
|--------------------------------|--------------------------------|

 |       |       |       |        |       |       |       |        
|--------------------------------|--------------------------------|
|--------------------------------|----4---------------------------|
|--------------------------------|--------------------------------|
|4---------------3-----------2---|--------2-------4-------4-------|
|--------------------------------|--------------------------------|

 |       |       |       |        |       |       |       |        
|--------------------------------|--------------------------------|
|--------------------------------|----7---------------3-bend-(4)--|
|--------------------------------|--------------------------------|
|5-----------6---------------7---|----------------2---------------|
|--------------------------------|--------------------------------|

 |       |       |       |        |       |       |       |        
|--------------------------------|--------------------------------|
|--------------------------------|--------------------------------|
|----4-bend-(5)------------------|------------------------2-------|
|2-------------------------------|0-----------3sl-4---------------|
|----------------3-bend to--(5)--|--------------------------------|

 |       |       |       |        |       |       |       |        
|--------------------------------|--------------------------------|
|--------------------------------|--------------------------------|
|5-------------------------------|--------------------------------|
|----------------4-----------5---|----5-------------------3-------|
|--------------------------------|--------------------------------|

 |       |       |       |        |       |       |       |        
|--------------------------------|--------------------------------|
|--------------------------------|----2---------------------------|
|--------------------------------|--------------------------------|
|2---------------1-----------0---|--------0-------2-------2-------|
|--------------------------------|--------------------------------|

 |       |       |       |        |       |       |       |        
|--------------------------------|--------------------------------|
|--------------------------------|----5-bend up to---(7)----------|
|--------------------------------|--------------------------------|
|3-----------4---------------5---|--------------------------------|
|--------------------------------|--------------------------------|

 |       |       |       |        
|--------------------------------|
|--------------------------------|
|5---5---6---7-------------------|
|--------------------------------|
|--------------------------------|
"            
Hard to play? Try these video lessons and learn fast. | Correct




comments powered by Disqus
↑ Back to top | Tablatures and chords are parodies/interpretations of the original songs. You may use it for private study, scholarship, research or language learning purposes only