» » »

Seinfeld Bass tabs (ver.2)

Artists:  A B C D E F G H I J K L M N O P Q R S T U V W X Y Z # 

Seinfeld Bass tabs (ver.2)

Misc Television
Rating:
0/5 (0 votes)

Tabs too difficult? Try these video lessons and learn fast.
                (Theme)
einfeld Theme - Jonathan Wolf

,
Watch it so you can see everything he does (I’ve included the time for each part).
Each new time the main riff plays it basically just moves up a fret, then has a 
ending bit.
Awesome version, thanks to alfredobass for putting it up, the cool chords on the end 
make this rendition very nice.


00:05 and 00:35

|---7--------------------------------|
|-----9--7-h9-5----------------------|
|-------------------5----------------|
|-X--------------------7--5-h7--3----|

00:07
|-------------------------------------------------------------0---14-14-13-14-|
|---------------------------------------------2-------------------11-11-10-11-|
|---------------5-------------------------------------------------------------|
|--0--0---4---7---X-X--4--5-5-----3--2--1--0----0--2-2-3-4-5------------------|


00:17
|-------------------------------------------------------------0---14-14-13-12--16-17-16-|
|---------------------------------------------2-------------------11-11-10--9--18-19-18-|
|---------------5-----------------------------------------------------------------------|
|X-0--0---4---7---X-X--4--5-5-----3--2--1--0----0--2-2-3-4-5----------------------------|


00:26

|-----------------------------------------------------------------15-15-14-13--17-18-17-|
|---------------------------------------------1---------------6---12-12-11-10--19-20-19-|
|---------------6-X-X-------------------------------------------------------------------|
|X-1--1---5---8--------5--6-6-----4--3--2--1----1--3-3-4-5-6----------------------------|

00:38

|-------------------------------------------------------------0------------------|
|---------------------------------------------2-------------------b3-------------|
|---------------7-X-X--6--7-7-----------------------------------------X--b5--X---|
|--2--2---6---9-------------------5--4--3--2----2--4-4-5-6-7-------------------0-|

00:07
|--------------------------------------------------------------------------------|
|---------------------------------------------2---------------b5-----------------|
|---------------5---------------------------------------------------5-5-6-7------|
|--0--0---4---7---X-X--4--5-5-----3--2--1--0----0--2-2-3-4-5-----------------0---|
            
Tabs too difficult? Try these video lessons and learn fast.




comments powered by Disqus
↑ Back to top | Tablatures and chords are parodies/interpretations of the original songs. You may use it for private study, scholarship, research or language learning purposes only