» » »

Saved By The Bell Tabs (ver.2)

Artists:  A B C D E F G H I J K L M N O P Q R S T U V W X Y Z # 

Saved By The Bell Tabs (ver.2)

Misc Television
Rating:
0/5 (0 votes)

Hard to play? Try these video lessons and learn fast.
                (Theme)
This is the main theme to Saved by the Bell! Enjoy!

E||---------------8----8----|--8----8---8---8---8----8----7----5----|
B||-------------------------|---------------------------------------|
G||-------------------------|---------------------------------------|
D||-------------------------|---------------------------------------|
A||-------------------------|---------------------------------------|
E||-------------------------|---------------------------------------|


  
--8---8---8---8----5----8--5----|--8----8---8----8---8---8--7-5----5-|
--------------------------------|------------------------------------|
--------------------------------|------------------------------------|
--------------------------------|------------------------------------|
--------------------------------|------------------------------------|
--------------------------------|------------------------------------|



----------------8----8----|--8---8---8---8---8----8----7----5----|
--------------------------|--------------------------------------|
--------------------------|--------------------------------------|
--------------------------|--------------------------------------|
--------------------------|--------------------------------------|
--------------------------|--------------------------------------|


 
--8---8---8---8------5----8--5---|--8---8---8---8---8---8----7--5----|
---------------------------------|-----------------------------------|
---------------------------------|-----------------------------------|
---------------------------------|-----------------------------------|
---------------------------------|-----------------------------------|
---------------------------------|-----------------------------------|


   
--12-----12-------12-----------|-----------------------------|
-------------------------------|------------------10---------|
-------------------------------|--12-----------11------------|
-------------------------------|-----------------------------|
-------------------------------|-----------------------------|
-------------------------------|-----------------------------|


  
--8-------12---12---15-12--10---8--|----------------------|
-----------------------------------|--10------------------|
--9--------------------------------|----------------------|
-----------------------------------|----------------------|
-----------------------------------|----------------------|
-----------------------------------|----------------------|


   
---------------8----8----|--8---8---8---8---8---8----7----5---|
-------------------------|------------------------------------|
-------------------------|------------------------------------|
-------------------------|------------------------------------|
-------------------------|------------------------------------|
-------------------------|------------------------------------|


 
--8---8---8---8-------5---8----5---|--8----8--8---8---8----8----7--5---5-|
-----------------------------------|-------------------------------------|
-----------------------------------|-------------------------------------|
-----------------------------------|-------------------------------------|
-----------------------------------|-------------------------------------|
-----------------------------------|-------------------------------------|



-----------------8---8----|--8----8----8---8---8---8---7----5---|
--------------------------|-------------------------------------|
--------------------------|-------------------------------------|
--------------------------|-------------------------------------|
--------------------------|-------------------------------------|
--------------------------|-------------------------------------|


  
--8---8---8---8-------5---8----5---|--8----8---8---8---8----8----7--5----|
-----------------------------------|-------------------------------------|
-----------------------------------|-------------------------------------|
-----------------------------------|-------------------------------------|
-----------------------------------|-------------------------------------|
-----------------------------------|-------------------------------------|


   
---12-------12-----12-----------|-------------------------------|
--------------------------------|-----------------10------------|
--------------------------------|--12----------11---------------|
--------------------------------|-------------------------------|
--------------------------------|-------------------------------|
--------------------------------|-------------------------------|


   
--8-------12----12---15--12--10-8---|------------------------|
------------------------------------|--10--------------------|
--9---------------------------------|------------------------|
------------------------------------|------------------------|
------------------------------------|------------------------|
------------------------------------|------------------------|


-------------------|--3-----------5----------8-|
-------------------|--------------7------------|
-------------------|-------------------------9-|
-------------------|---------------------------|
-------------------|---------------------------|
-------------------|---------------------------|


  
--------12---12---15--12--10--8---|-------------5----------|
----------------------------------|--8----------7----------|
----------------------------------|------------------------|
----------------------------------|------------------------|
----------------------------------|------------------------|
----------------------------------|------------------------|


    
--8-------12---12---15--12--10-8--|---------------5-----------8-|
----------------------------------|--8----------7---------------|
--9-------------------------------|---------------------------9-|
----------------------------------|-----------------------------|
----------------------------------|-----------------------------|
----------------------------------|-----------------------------|


   
----------12---12---15--12--10--8--|------------------------|
-----------------------------------|--10--------------------|
-----------------------------------|------------------------|
-----------------------------------|------------------------|
-----------------------------------|------------------------|
-----------------------------------|------------------------|
            
Hard to play? Try these video lessons and learn fast. | Correct




comments powered by Disqus
↑ Back to top | Tablatures and chords are parodies/interpretations of the original songs. You may use it for private study, scholarship, research or language learning purposes only