» » »

Saved By The Bell Tabs (ver.1)

Artists:  A B C D E F G H I J K L M N O P Q R S T U V W X Y Z # 

Saved By The Bell Tabs (ver.1)

Misc Television
Rating:
0/5 (0 votes)
Tabs too difficult? Try these video lessons and learn fast.
                Saved by the Bell Theme
  ==========================


Verse:

       D
When I wake up in the morning
    D
An alarm gives out a warning
      (A)                               A  A
And I think I'll never make it on time

       D
By the time I grab my books
      D
And I give myself a look
           F                              E
I'm at the corner just in time to see the bus fly by


Chorus:

G    F#m   E                           A
It's all right, cause I'm saved by the bell.

Fill:
   
     A
E-------5-------5-------5------------
B-----5-------5-------5--------------
G--7b9-----7b9-----7b9-----7b9-5-----
D---------------------------------7--
A------------------------------------
E------------------------------------


      D
If the teacher pops a test
     D
I know I'm in a mess
     (A)                               A  A
And my dog ate all my homework last night
     D
Ridin low in my chair
     D
She won't know that I'm there
         F                         E
If I can hand it in tomorrow it'll be all right

G    F#m   E                          A
It's all right, cause I'm saved by the bell.

Solo:

   (A)            D                             A
E------------------------------------------------------------------------------------
B--8----8----8----8--8-8--8-8--8--------8----8---------------------------------------
G--7b9--7b9--7b9--7b9--7b9--7b9--etc.---7b9--7b9--7-5-7-5--7b9--7-5---7b9-5----------
D-------------------------------------------------------------------7-------7--------
A------------------------------------------------------------------------------------
E------------------------------------------------------------------------------------

   D                  F                  E
E---------------------------------15-----------------------------------15-17-17b19vv-
B--10-10-12-10-13-10--13-13-15-13-13-13------17-17-----17-17-----17-17---------------
G--11-11-11-11-11-11--14-14-14-14-14-14--19b21-----19b21-----19b21-------------------
D--12-12-12-12-12-12--15-15-15-15-15-15----------------------------------------------
A------------------------------------------------------------------------------------
E------------------------------------------------------------------------------------



G    F#m   E
It's all right, cause I'm saved by the
G    F#m   E
It's all right, cause I'm saved by the
G    F#m   E                          A
It's all right, cause I'm saved by the bell.

Outro:

    A
E----------------5-/-0----
B----------------5-/-0----
G--7b9r7p5-7-5------------
D--------------7----------
A-------------------------
E-------------------------
            
Tabs too difficult? Try these video lessons and learn fast.


comments powered by Disqus
↑ Back to top | Tablatures and chords are parodies/interpretations of the original songs. You may use it for private study, scholarship, research or language learning purposes only