» » »

Misc Television, Sandbaggers Tabs (ver.1)

Artists:  A B C D E F G H I J K L M N O P Q R S T U V W X Y Z # 

Sandbaggers Tabs (ver.1)

Misc Television Tabs
 Rating:
4/5 (4 votes)
Sandbaggers lessons Tabs too difficult? Try these video lessons and learn fast
                (Theme)
-----------------------------------------------------------------------------
                         SANDBAGGERS THEME - Roy Budd
-----------------------------------------------------------------------------


Tuning:EADGBe


Rhythm (High version)                (Low version)
e|----0---0---0-------------------------------------------------------------|
B|------3---1---0-1---------------------------------------------------------|
G|--2-----------------------------------------------------------------------|
D|--------------------------------------------------------------------------|
A|-------------------------------------0-7-5-7-3-7-2-3----------------------|
E|--------------------------------------------------------------------------|

Melody

e|-----------5-3-2-0------0-3-5-2---0---0-5-7-8-7-3-5-0-3------0-3-5-2------|
B|---------5------------1---------3--------------------------1---------3----|
G|--2--4-5------------2------------------------------------2-------------2--|
D|--------------------------------------------------------------------------|
A|--------------------------------------------------------------------------|
E|--------------------------------------------------------------------------|

Final two notes that don't resolve (like the show itself!)

e|--7-8--|
B|-------|
G|-------|
D|-------|
A|-------|
E|-------|


BONUS! Yorkshire Television Jingle!

e|--10--10--10--8--10--|
B|---------------------|
G|--7---7---7---5--7 --|
D|---------------------|
A|---------------------|
E|---------------------|


| /  slide up
| \  slide down
| h  hammer-on
| p  pull-off
| ~  vibrato
| +  harmonic
| x  Mute note
=============================================================================

For more tabs from secret agent films and TV:
            
Submit corrections

comments powered by Disqus
↑ Back to top | Misc Television Tabs for Sandbaggers. Lyrics for acoustic guitar and electric guitar. Tablatures and chords are parodies/interpretations of the original songs. You may use it for private study, scholarship, research or language learning purposes only