>
 >
Roobarb Custard

Roobarb Custard Guitar Tabs

Misc Television - Roobarb Custard chords, tabs, tablatures, lyrics

Guitar lessons | Add/correct | Request | Top 50 tabs Artists:  A B C D E F G H I J K L M N O P Q R S T U V W X Y Z 0-9

Roobarb Custard Guitar Tabs – Misc Television

CD, Sheet music, Poster

Do you like Roobarb Custard? Share with your friends now
Tabs
...ROOBARB AND CUSTARD... TV Theme
-------------------------.........

*from the TV Series 1974*


*INSTRUMENTAL*


Verse 1:

    C      G  C      G     C      Eb   G
e|----------------------|---------6-6-----|
B|--5-6-8--4--5-6-8--4--|--5-6-8-------8--|
G|----------------------|-----------------|
D|----------------------|-----------------|
A|----------------------|-----------------|
E|----------------------|-----------------|

    C      G  C      G     E    D    C
e|----------------------|---------------|
B|--5-6-8--4--5-6-8--4--|--5-5--3-3--1--|
G|----------------------|---------------|
D|----------------------|---------------|
A|----------------------|---------------|
E|----------------------|---------------|

Bridge 1:

F, C, Bb  B, G

Verse 2:

    C      G  C      G     C      Eb   G
e|----------------------|---------6-6-----|
B|--5-6-8--4--5-6-8--4--|--5-6-8-------8--|
G|----------------------|-----------------|
D|----------------------|-----------------|
A|----------------------|-----------------|
E|----------------------|-----------------|

    C      G  C      G     E    D    C
e|----------------------|---------------|
B|--5-6-8--4--5-6-8--4--|--5-5--3-3--1--|
G|----------------------|---------------|
D|----------------------|---------------|
A|----------------------|---------------|
E|----------------------|---------------|

Outro:

   (G)    C
e|--3-5-7-8---8-8--|
B|-----------------|
G|-----------------|
D|-----------------|
A|-----------------|
E|-----------------|


CHORD DIAGRAMS:
---------------

   C       G       Eb      E       D       F       Bb      B

 EADGBE  EADGBE  EADGBE  EADGBE  EADGBE  EADGBE  EADGBE  EADGBE
 x32010  320003  x68886  022100  xx0232  133211  x13331  x24442
                                    ____
           _             __   __   |  __|  __    __
          | |   _   _   |  \ /  |  | |__   \ \  / /
  _____   | |  | | | |  |       |  |__  |   \ \/ /
 |  ___|  | |  | | | |  | |\_/| |   __| |    \  /
 | |= =   | |  | |_| |  | | = | |  |____|     | |
 | |      | |  |_____|  | |   | |   = = =     | |
 | |___   | |   = = =   | |   | |             | |
 |_____|  | |           |_|   |_|             | |
          |_______|  Joel from cLuMsY, 2008    =





Comments


Popular Misc Television tabs & chords
Dr Pepper Commercial Chords
Big Show Wwf Tabs
Blockbusters Theme Tabs
Corner Gas Theme Intro Tabs
Fraggle Rock Theme 1 Tabs
Home And Away Theme Tabs
Killer Tofu Tabs
Ndtitanlady - Ending Song Tabs
Rubber Duckie Tabs
Smoking Room Theme Tabs


Song lyrics



↑ Back to top | Tablatures and chords are parodies/interpretations of the original songs. You may use it for private study, scholarship, research or language learning purposes only
© 2014 AZChords.com Contact us | Privacy policy | DMCA | Add/correct tabs | Request tabs | Top 50 tabs