» » »

Robot Chicken Bass tabs (ver.1)

Artists:  A B C D E F G H I J K L M N O P Q R S T U V W X Y Z # 

Robot Chicken Bass tabs (ver.1)

Misc Television
Rating:
0/5 (0 votes)

Hard to play? Try these video lessons and learn fast.
                (Theme)
The first tab is for Robot Chicken.  The second is for Robot Chicken: The
Star Wars Special.  Both Composed by BASS GOD Les Claypool.

Here's the tab of the Robot Chicken theme

G|---------------|---------------|---------------|---------IT'S ALIVE!|
D|-8---8---8-8-7-|-8---8---8-8-7-|-8---8---8-8-7-|-8---8---IT'S ALIVE!|
A|---9---9-------|---9---9-------|---9---9-------|---9---9-IT'S ALIVE!|
E|---------------|---------------|---------------|---------IT'S ALIVE!|

G|---------------|---------------|---------------|-----------|
D|-8---8---8-8-7-|-8---8---8-8-7-|-8---8---8-8-7-|-8---8---8-|
A|---9---9-------|---9---9-------|---9---9-------|---9---9---|
E|---------------|---------------|---------------|-----------|


Here's The Star Wars Special

G|---------------|---------------|---------------|---------(VADER BREATH)!|
D|-8---8---8-8-7-|-8---8---8-8-7-|-8---8---8-8-7-|-8---8---(VADER BREATH)!|
A|---9---9-------|---9---9-------|---9---9-------|---9---9-(VADER BREATH)!|
E|---------------|---------------|---------------|---------(VADER BREATH)!|

G|-------------------|-7-7-7-8-----------|-12-0-0-12-11-10-9-8-9-|
D|-5-5-5---8-5---8-5-|---------8-----8-5-|-----------------------|
A|-------6-----6-----|-----------9-6-----|-----------------------|
E|-------------------|-------------------|-----------------------|

G|----------------------------------7-|-12-0-0-12-11-10-9-|
D|-8-13-12-11-10-9-10---5---5-8-5-8---|-------------------|
A|--------------------6---6-----------|-------------------|
E|------------------------------------|-------------------|

There you go.  I also put up the Blue's Clues Drawing in the Notebook tab.
Check it out.
            
Hard to play? Try these video lessons and learn fast. | Correct




comments powered by Disqus
↑ Back to top | Tablatures and chords are parodies/interpretations of the original songs. You may use it for private study, scholarship, research or language learning purposes only