» » »

Misc Television, Ren And Stimpy Show Tabs (ver.3)

Artists:  A B C D E F G H I J K L M N O P Q R S T U V W X Y Z # 

Ren And Stimpy Show Tabs (ver.3)

Misc Television Tabs
Rating:
0/5 (0 votes)
Ren And Stimpy Show lessons Tabs too difficult? Try these video lessons and learn fast
                (Theme)


This a little diddy I picked out by experimentation. I never found an
accurate tab for it so I made one myself. I left out the solo because I
never got it quite right, so just improv a little. By the way, this is
my first post.

LEGEND
***********************************
  1                               *
10^ - bend 1 whole step           *
  1/2                             *
10^ - bend 1/2 step (get it yet?) *
                                  *
10h12 - hammer-on                 *
                                  *
10p8 - pull-off                   *
  1                               *
10^\ - bend up, bend back down    *
                                  *
10~ - let note ring               *
                                  *
5s10 - slide                      *
***********************************

Standard E tuning
       1               1/2     1/2      1/2 1
e|---10^--------------------------------------------------------|
B|-----------12p10----------------------------------------------|
G|----------------11p9---------9^-------9^\9^~\---------9-------|
D|--------------------12^--------12------------12-9-12~--12-----|
A|--------------------------------------------------------------|
E|--------------------------------------------------------------|

                              3/4                  1   1  1
e|---------------------------10^~----------------10^\10^10^|
B|------10-10-10-------10--------12~p10--10~---12----------|
G|--9s11-----------------11p9----------11------------------|
D|---------------------------------------------------------|
A|---------------------------------------------------------|
E|---------------------------------------------------------|


e|---------------------{--------------------------------|
B|--12p10--10~---------{-----10----10----10----10-------|
G|-------11-----11p9---{-9h11--9h11--9h11--9h11--11p9---|
D|------------------12-{-----------------------------12-|
A|---------------------{--------------------------------|
E|---------------------{--------------------------------|

        1/4             1/2
e|-----------------------------|    Repeat all
B|--10s12^~12-12p10------------|   until { marks and
G|-----------------11p9--------| then play the following:
D|---------------------12^~10--|
A|-----------------------------|
E|-----------------------------|


e|------------------10^--------7--5-----------------\
B|--10-10-10-----------12~12~--7--5-----------------\
G|-----------11-9-11-----------------solo-----------\          END
D|--------------------------------------------------\improv
A|--------------------------------------------------\
E|--------------------------------------------------\


Well there it is, I hope you like it. I know a few places may sound a
little out of place/key, but this is playing it by ear, and only small
changes should be needed, if any. Listen to the NICK version and find
out if its "close enough."

RoAcH
            

comments powered by Disqus
↑ Back to top | Misc Television Tabs for Ren And Stimpy Show. Lyrics for acoustic guitar and electric guitar. Tablatures and chords are parodies/interpretations of the original songs. You may use it for private study, scholarship, research or language learning purposes only