» » »

Misc Television, Red Dwarf Chords (ver.1)

Artists:  A B C D E F G H I J K L M N O P Q R S T U V W X Y Z # 

Red Dwarf Chords (ver.1)

Misc Television Tabs
 Rating:
4/5 (4 votes)
Red Dwarf lessons Tabs too difficult? Try these video lessons and learn fast
1
                (Theme)
I listened to this for Goddam hours trying to get these chords. And i thought it would 
simpler than doing a full guitar tab...

INTRO
 G
e------------|------------|
b------------|------------|
g------------|------------|
D-----------0|-----------0|
A-----0-2-3--|-----0-2-3--|
E---3--------|---3--------|

VERSE 1

    C       Em
Its cold outside,
        F
There's no kind of atmosphere,
    C   Gm
I'm all alone,
Dm      A
More or less.


PRE-CHORUS 1

F
Let me fly,
D7/F#
Far away from here,


CHORUS

C    C7   Asus4 A
Fun, fun, fun,
       Dm   F    G
In the sun, sun, sun.


VERSE 2

   C       Gm
I want to lie,
F
Shipwrecked and comotoase,
C        Gm
Drinking fresh,
Dm    A
Mango juice,


PRE-CHORUS 2

F
Goldfish shoals,
D7/F#
Nibbling at my toes,


CHORUS

C    C7   Asus4 A
Fun, fun, fun,
       Dm   Fm   G
In the sun, sun, sun,
C    C7   Asus4 A
Fun, fun, fun,
       Dm   Fm   G
In the sun, sun, sun.


OUTRO

e------------|------------|------------|------------|
b------------|------------|------------|------------|
g------------|------------|------------|------------|
D-----------0|-----------0|-----------0|------------|
A-----0-2-3--|-----0-2-3--|-----0-2-3--|-3----------|
E---3--------|---3--------|---3--------|------------|
            
Submit corrections

comments powered by Disqus
↑ Back to top | Misc Television Chords for Red Dwarf. Lyrics for acoustic guitar and electric guitar. 1 Tablatures and chords are parodies/interpretations of the original songs. You may use it for private study, scholarship, research or language learning purposes only