>
 >
Power Rangers

Power Rangers Guitar Tabs

Misc Television - Power Rangers chords, tabs, tablatures, lyrics

Guitar lessons | Add/correct | Request | Top 50 tabs Artists:  A B C D E F G H I J K L M N O P Q R S T U V W X Y Z 0-9

Power Rangers Guitar Tabs – Misc Television

CD, Sheet music, Poster

Do you like Power Rangers? Share with your friends now
Tabs
POWER RANGERS (PUNK ARRANGEMENT)
                               As recorded by Nick

Words by noneMusic by Whoever
Arranged by Nick

Gtr I (E A D G B E) - 'Rythym Guitar'
Gtr II (E A D G B E) - 'Lead Guitar (Distorted)'
Gtr III (E A D G B E) - 'Vocals Arranged For Guitar'

  Q=180
 4/4
  Gtr I
  W          E E E E E E E E   E E E E E E +E  E   E E E E E E E E
|----------|-----------------|-------------------|------------------|
|----------|-----------------|-------------------|------------------|
|----------|-----4-----4-----|-4-----4---4-(4)-5-|-----4-----4------|
|----------|-----2-----2-----|-2-----2---2-(2)-2-|-----2-----2------|
|----------|-----------------|-------------------|------------------|
|----------|-0-0---0-0---0-0-|---0-0---0---------|-0-0---0-0---0-0--|


  E E E E E E +E  E   E E E E E E E E   E E E E E E +E  E   E E E E E E E E
|-------------------|-----------------|-------------------|-----------------|
|-------------------|-----------------|-------------------|-----------------|
|-4-----4---4-(4)-5-|-----4-----4-----|-4-----4---4-(4)-5-|-----4-----4-----|
|-2-----2---2-(2)-2-|-----2-----2-----|-2-----2---2-(2)-2-|-----2-----2-----|
|-------------------|-----------------|-------------------|-----------------|
|---0-0---0---------|-0-0---0-0---0-0-|---0-0---0---------|-0-0---0-0---0-0-|


  E E E E E E +E  E   W
|-------------------|---------------------------------|
|-------------------|---------------------------------|
|-4-----4---4-(4)-5-|---------------------------------|
|-2-----2---2-(2)-2-|-5-------------------------------|
|-------------------|-3-------------------------------|
|---0-0---0---------|---------------------------------|
|
| Gtr II
| W                   S S S S S S S S S S S S S S S S
|-------------------|-3-3-3-3-3-3-3-3-3-3-3-3-3-3-3-3-|
|-------------------|-5-5-5-5-5-5-5-5-5-5-5-5-5-5-5-5-|
|-------------------|-5-5-5-5-5-5-5-5-5-5-5-5-5-5-5-5-|
|-------------------|---------------------------------|
|-------------------|---------------------------------|
|-------------------|---------------------------------|


  W                                 W
|---------------------------------|---------------------------------|
|---------------------------------|---------------------------------|
|-2-------------------------------|---------------------------------|
|-0-------------------------------|-4-------------------------------|
|---------------------------------|-2-------------------------------|
|---------------------------------|---------------------------------|
|
| S S S S S S S S S S S S S S S S   S S S S S S S S S S S S S S S S
|-5-5-5-5-5-5-5-5-5-5-5-5-5-5-5-5-|-7-7-7-7-7-7-7-7-7-7-7-7-7-7-7-7-|
|-7-7-7-7-7-7-7-7-7-7-7-7-7-7-7-7-|-7-7-7-7-7-7-7-7-7-7-7-7-7-7-7-7-|
|-7-7-7-7-7-7-7-7-7-7-7-7-7-7-7-7-|-8-8-8-8-8-8-8-8-8-8-8-8-8-8-8-8-|
|---------------------------------|---------------------------------|
|---------------------------------|---------------------------------|
|---------------------------------|---------------------------------|


  H               H                 W
|---------------------------------|---------------------------------|
|---------------------------------|---------------------------------|
|-4---------------2---------------|---------------------------------|
|-2---------------0---------------|-5-------------------------------|
|---------------------------------|-3-------------------------------|
|---------------------------------|---------------------------------|
|
| S S S S S S S S S S S S S S S S   S S S S S S S S S S S S S S S S
|-7-7-7-7-7-7-7-7-7-7-7-7-7-7-7-7-|-8-8-8-8-8-8-8-8-8-8-8-8-8-8-8-8-|
|-8-8-8-8-8-8-8-8-8-8-8-8-8-8-8-8-|-8-8-8-8-8-8-8-8-8-8-8-8-8-8-8-8-|
|-9-9-9-9-9-9-9-9-9-9-9-9-9-9-9-9-|-9-9-9-9-9-9-9-9-9-9-9-9-9-9-9-9-|
|---------------------------------|---------------------------------|
|---------------------------------|---------------------------------|
|---------------------------------|---------------------------------|


  +H                H                 W          +H.      Q
|-----------------------------------|----------|--------------|
|-----------------------------------|----------|--------------|
|-----------------------------------|----------|--------------|
|-(5)---------------5---------------|-4--------|-(4)----------|
|-(3)---------------3---------------|-2--------|-(2)----------|
|-----------------------------------|----------|--------------|
|
|                                     ~
|  S  S S S S S S S S S S S S S S S   W          +H.      Q
|--8--8-8-8-8-8-8-8-8-8-8-8-8-8-8-8-|-7--------|-(7)----------|
|--8--8-8-8-8-8-8-8-8-8-8-8-8-8-8-8-|----------|--------------|
|--9--9-9-9-9-9-9-9-9-9-9-9-9-9-9-9-|----------|--------------|
|-----------------------------------|----------|--------------|
|-----------------------------------|----------|--------------|
|-----------------------------------|----------|--------------|


  Q    Q    E   E  +S  S E    Q      +S  S  E  +Q    Q
|--------------------------|-----------------------------|
|--------------------------|-----------------------------|
|------4--------4--(4)-----|--4------(4)----4--(4)---4---|
|------2--------2--(2)-----|--2------(2)----2--(2)---2---|
|--------------------------|-----------------------------|
|--------------------------|-----------------------------|
|
| Q    Q   +E   E  +Q         Q.            E  +Q    Q
|-----12--(12)-19-(19)-----|-17--------------------------|
|--------------------------|---------------19-(19)--20---|
|--------------------------|-----------------------------|
|--------------------------|-----------------------------|
|--------------------------|-----------------------------|
|--------------------------|-----------------------------|
|
| Gtr III
| E E  Q    E   E  +S  S E   +S  S E +Q        +Q.     E
|-3----3----3---3--(3)---7-|-(7)-------------------------|
|-5----5----3---5--(5)---8-|-(8)---8-(8)-------(8)-------|
|--------------------------|-------9-(9)-------(9)-------|
|--------------------------|-----------------------------|
|--------------------------|-----------------------------|
|--------------------------|-----------------------------|


  Q   Q    E   E  +S  S E    Q   +S  S  E  +Q    Q
|-------------------------|--------------------------|
|-------------------------|--------------------------|
|-------------------------|--2---(2)----2--(2)---2---|
|-----5--------5--(5)-----|--0---(0)----0--(0)---0---|
|-----3--------3--(3)-----|--------------------------|
|-------------------------|--------------------------|
|
| Q   Q   +E   E  +Q         Q.         E  +Q    Q
|-------------19-(19)-----|-17---------15-(15)--14---|
|-------------------------|--------------------------|
|----21--(21)-------------|--------------------------|
|-------------------------|--------------------------|
|-------------------------|--------------------------|
|-------------------------|--------------------------|
|
| W                          W
|-------------------------|--------------------------|
|-------------------------|--------------------------|
|-------------------------|--------------------------|
|-------------------------|--------------------------|
|-------------------------|--------------------------|
|-------------------------|--------------------------|


  Q    Q     E   E  +S  S E    Q      +S  S  E  +Q    Q
|---------------------------|----------------------------|
|---------------------------|----------------------------|
|------4---------4--(4)-----|--4------(4)----4--(4)---4--|
|------2---------2--(2)-----|--2------(2)----2--(2)---2--|
|---------------------------|----------------------------|
|---------------------------|----------------------------|
|
| Q    Q    +E   E  +Q         Q.            E  +Q    Q
|-----12---(12)-19-(19)-----|-17-------------------------|
|---------------------------|---------------19-(19)--20--|
|---------------------------|----------------------------|
|---------------------------|----------------------------|
|---------------------------|----------------------------|
|---------------------------|----------------------------|
|
| E E  E E   E   E   E    E   +S  S E +Q        +Q    Q
|-------------------------7-|-(7)------------------------|
|-8----8-----8---8--------8-|-(8)---8-(8)-------(8)------|
|-9----9-----7---9----------|-------9-(9)-------(9)------|
|---------------------------|----------------------------|
|---------------------------|----------------------------|
|---------------------------|----------------------------|


  Q   Q    E   E  +S  S E    Q   +S  S  E  +Q    Q
|-------------------------|--------------------------|
|-------------------------|--------------------------|
|-------------------------|--2---(2)----2--(2)---2---|
|-----5--------5--(5)-----|--0---(0)----0--(0)---0---|
|-----3--------3--(3)-----|--------------------------|
|-------------------------|--------------------------|
|
| Q   Q   +E   E  +Q         Q.         E  +Q    Q
|-------------19-(19)-----|-17---------15-(15)--14---|
|-------------------------|--------------------------|
|----21--(21)-------------|--------------------------|
|-------------------------|--------------------------|
|-------------------------|--------------------------|
|-------------------------|--------------------------|
|
| W                          W
|-------------------------|--------------------------|
|-------------------------|--------------------------|
|-------------------------|--------------------------|
|-------------------------|--------------------------|
|-------------------------|--------------------------|
|-------------------------|--------------------------|


  Q   Q     E   E +S  S E   Q    E  E +Q   Q
|-------------------------|-------------------|
|-------------------------|-------------------|
|-----5---------5-(5)-----|-5-------5-(5)--5--|
|-----3---------3-(3)-----|-3-------3-(3)--3--|
|-------------------------|-------------------|
|-------------------------|-------------------|
|
| Gtr III
| E E S S E S S E +S  S E   E E +Q    +Q   Q
|-8---8-----8---8-(8)---8-|---8-(8)---(8)--8--|
|-6---6-----6---6-(6)---6-|---6-(6)---(6)--6--|
|-------------------------|-------------------|
|-------------------------|-------------------|
|-------------------------|-------------------|
|-------------------------|-------------------|


  +S  S E  Q       E    E +S  S E
|---------------------------------|
|---------------------------------|
|-(5)------5------------5-(5)-----|
|-(3)------3------------3-(3)-----|
|---------------------------------|
|---------------------------------|
|
|  E    E +S  S E +S  S E +S  S E
|--8----8-(8)---8-(8)---8-(8)---8-|
|--6----6-(6)---6-(6)---6-(6)---6-|
|---------------------------------|
|---------------------------------|
|---------------------------------|
|---------------------------------|


   Q       E    E +Q     Q      E E E E E E E E
|-----------------------------|-----------------|
|-----------------------------|-----------------|
|--5------------5-(5)----5----|-----4-----4-----|
|--3------------3-(3)----3----|-2-2-2-2-2-2-2-2-|
|-----------------------------|-----------------|
|-----------------------------|-----------------|
|
| +S  S E +S  S E +E  E +E  E   W
|-(8)---8-(8)---8-(8)---------|-----------------|
|-(6)---6-(6)---8-(8)-6-(6)---|-----------------|
|-----------------------------|-----------------|
|-----------------------------|-----------------|
|-----------------------------|-----------------|
|-----------------------------|-----------------|


  E E E E E E E E   E E E E E E E E
|-----------------|-----------------|
|-----------------|-----------------|
|-4-----4-----4---|-----4-----4-----|
|-2-2-2-2-2-2-2-0-|-2-2-2-2-2-2-2-2-|
|-----------------|-----------------|
|-----------------|-----------------|
|
| W                 W
|-----------------|-----------------|
|-----------------|-----------------|
|-----------------|-----------------|
|-----------------|-----------------|
|-----------------|-----------------|
|-----------------|-----------------|


  E E E E E E E E   Q  Q  Q  Q    Q  Q  Q  Q    Q    Q    E   E  +S  S E
|-----------------|-------------|----------2--|---------------------------|
|-----------------|----------3--|-4--5--6--0--|---------------------------|
|-4-----4-----4---|-4--5--6--0--|-1--2--3-----|------4--------4--(4)------|
|-2-2-2-2-2-2-2-2-|-2--3--4-----|-------------|------2--------2--(2)------|
|-----------------|-------------|-------------|---------------------------|
|-----------------|-------------|-------------|---------------------------|
|
| Gtr II
| W                 W             W             Q    Q   +E   E  +Q
|-----------------|-------------|-------------|-----12--(12)-19-(19)------|
|-----------------|-------------|-------------|---------------------------|
|-----------------|-------------|-------------|---------------------------|
|-----------------|-------------|-------------|---------------------------|
|-----------------|-------------|-------------|---------------------------|
|-----------------|-------------|-------------|---------------------------|
|
| Gtr III
| W                 W             W             E E  Q    E   E  +S  S E
|-----------------|-------------|-------------|------------------------7--|
|-----------------|-------------|-------------|-8----8----8---8--(8)---8--|
|-----------------|-------------|-------------|-9----9----7---9--(9)------|
|-----------------|-------------|-------------|---------------------------|
|-----------------|-------------|-------------|---------------------------|
|-----------------|-------------|-------------|---------------------------|


   Q      +S  S  E  +Q    Q     Q   Q    E   E  +S  S E
|-----------------------------|-------------------------|
|-----------------------------|-------------------------|
|--4------(4)----4--(4)---4---|-------------------------|
|--2------(2)----2--(2)---2---|-----5--------5--(5)-----|
|-----------------------------|-----3--------3--(3)-----|
|-----------------------------|-------------------------|
|
|  Q.            E  +Q    Q     Q   Q   +E   E  +Q
|-17--------------------------|-------------19-(19)-----|
|---------------19-(19)--20---|-------------------------|
|-----------------------------|----21--(21)-------------|
|-----------------------------|-------------------------|
|-----------------------------|-------------------------|
|-----------------------------|-------------------------|
|
| +S  S E +Q        +Q.     E   W
|-(7)-------------------------|-------------------------|
|-(8)---8-(8)-------(8)-------|-------------------------|
|-------9-(9)-------(9)-------|-------------------------|
|-----------------------------|-------------------------|
|-----------------------------|-------------------------|
|-----------------------------|-------------------------|


   Q   +S  S  E  +Q    Q    Q    Q     E   E  +S  S E
|-------------------------|----------------------------|
|-------------------------|----------------------------|
|--2---(2)----2--(2)---2--|------4---------4--(4)------|
|--0---(0)----0--(0)---0--|------2---------2--(2)------|
|-------------------------|----------------------------|
|-------------------------|----------------------------|
|
|  Q.         E  +Q    Q    Q    Q    +E   E  +Q
|-17---------15-(15)--14--|-----12---(12)-19-(19)------|
|-------------------------|----------------------------|
|-------------------------|----------------------------|
|-------------------------|----------------------------|
|-------------------------|----------------------------|
|-------------------------|----------------------------|
|
|  W                        E E  E E   E   E   E    E
|-------------------------|-------------------------7--|
|-------------------------|-8----8-----8---8--------8--|
|-------------------------|-9----9-----7---9-----------|
|-------------------------|----------------------------|
|-------------------------|----------------------------|
|-------------------------|----------------------------|


   Q      +S  S  E  +Q    Q
|----------------------------|
|----------------------------|
|--4------(4)----4--(4)---4--|
|--2------(2)----2--(2)---2--|
|----------------------------|
|----------------------------|
|
|  Q.            E  +Q    Q
|-17-------------------------|
|---------------19-(19)--20--|
|----------------------------|
|----------------------------|
|----------------------------|
|----------------------------|
|
| +S  S E +Q        +Q    Q
|-(7)------------------------|
|-(8)---8-(8)-------(8)------|
|-------9-(9)-------(9)------|
|----------------------------|
|----------------------------|
|----------------------------|


  Q   Q    E   E  +S  S E    Q   +S  S  E  +Q    Q
|-------------------------|-------------------------|
|-------------------------|-------------------------|
|-------------------------|--2---(2)----2--(2)---2--|
|-----5--------5--(5)-----|--0---(0)----0--(0)---0--|
|-----3--------3--(3)-----|-------------------------|
|-------------------------|-------------------------|
|
| Q   Q   +E   E  +Q         Q.         E  +Q    Q
|-------------19-(19)-----|-17---------15-(15)--14--|
|-------------------------|-------------------------|
|----21--(21)-------------|-------------------------|
|-------------------------|-------------------------|
|-------------------------|-------------------------|
|-------------------------|-------------------------|
|
| W                          W
|-------------------------|-------------------------|
|-------------------------|-------------------------|
|-------------------------|-------------------------|
|-------------------------|-------------------------|
|-------------------------|-------------------------|
|-------------------------|-------------------------|


   Q           Q           E     E    +S   S  E
|--------------------------------------------------|
|--------------------------------------------------|
|--------------5-----------------5----(5)----------|
|--------------3-----------------3----(3)----------|
|--------------------------------------------------|
|--------------------------------------------------|
|
|  S  S  S  S  S  S  S  S  S  S  S  S  S   S  S  S
|--------------------------------------------------|
|-13-13-13-13-13-13-13-13-13-13-13-13-13--13-13-13-|
|-14-14-14-14-14-14-14-14-14-14-14-14-14--14-14-14-|
|-15-15-15-15-15-15-15-15-15-15-15-15-15--15-15-15-|
|--------------------------------------------------|
|--------------------------------------------------|
|
|  E     E     S  S  E     S  S  E    +S   S  E
|--8-----------8-----------8-----8----(8)-----8----|
|--6-----------6-----------6-----6----(6)-----6----|
|--------------------------------------------------|
|--------------------------------------------------|
|--------------------------------------------------|
|--------------------------------------------------|


   Q           E      E    +Q            Q
|---------------------------------------------------|
|---------------------------------------------------|
|--5------------------5----(5)-----------5----------|
|--3------------------3----(3)-----------3----------|
|---------------------------------------------------|
|---------------------------------------------------|
|
|  S  S  S  S  S   S  S  S  S   S  S  S  S  S  S  S
|---------------------------------------------------|
|-13-13-13-13-13--13-13-13-13--13-13-13-13-13-13-13-|
|-14-14-14-14-14--14-14-14-14--14-14-14-14-14-14-14-|
|-15-15-15-15-15--15-15-15-15--15-15-15-15-15-15-15-|
|---------------------------------------------------|
|---------------------------------------------------|
|
|  E     E    +Q           +Q            Q
|--------8----(8)----------(8)-----------8----------|
|--------6----(6)----------(6)-----------6----------|
|---------------------------------------------------|
|---------------------------------------------------|
|---------------------------------------------------|
|---------------------------------------------------|


  +S   S  E     Q            E      E    +S   S  E
|-----------------------------------------------------|
|-----------------------------------------------------|
|-(5)-----------5-------------------5----(5)----------|
|-(3)-----------3-------------------3----(3)----------|
|-----------------------------------------------------|
|-----------------------------------------------------|
|
|  S   S  S  S  S   S  S  S  S   S  S  S  S   S  S  S
|-----------------------------------------------------|
|-13--13-13-13-13--13-13-13-13--13-13-13-13--13-13-13-|
|-14--14-14-14-14--14-14-14-14--14-14-14-14--14-14-14-|
|-15--15-15-15-15--15-15-15-15--15-15-15-15--15-15-15-|
|-----------------------------------------------------|
|-----------------------------------------------------|
|
|  E      E    +S   S  E    +S   S  E    +S   S  E
|--8------8----(8)-----8----(8)-----8----(8)-----8----|
|--6------6----(6)-----6----(6)-----6----(6)-----6----|
|-----------------------------------------------------|
|-----------------------------------------------------|
|-----------------------------------------------------|
|-----------------------------------------------------|


   Q            E      E    +Q            Q
|-----------------------------------------------------|
|-----------------------------------------------------|
|--5-------------------5----(5)-----------5-----------|
|--3-------------------3----(3)-----------3-----------|
|-----------------------------------------------------|
|-----------------------------------------------------|
|
|  S   S  S  S  S   S  S  S  S   S  S  S  S   S  S  S
|-----------------------------------------------------|
|-13--13-13-13-13--13-13-13-13--13-13-13-13--13-13-13-|
|-14--14-14-14-14--14-14-14-14--14-14-14-14--14-14-14-|
|-15--15-15-15-15--15-15-15-15--15-15-15-15--15-15-15-|
|-----------------------------------------------------|
|-----------------------------------------------------|
|
| +S   S  E    +S   S  E    +E      E    +E      E
|-(8)-----8----(8)-----8----(8)-----------------------|
|-(6)-----6----(6)-----8----(8)-----6----(6)----------|
|-----------------------------------------------------|
|-----------------------------------------------------|
|-----------------------------------------------------|
|-----------------------------------------------------|


  H Q. Q
|-----------*|
|-----------*|
|-4----4----*|
|-2----2----*|
|-----------*|
|-----------*|
|
| Gtr III
| H Q. Q
|-7----7----*|
|-5----5----*|
|-----------*|
|-----------*|
|-----------*|
|-----------*|


Duration Legend
---------------
W - whole; H - half; Q - quarter; E - 8th; S - 16th; T - 32nd; X - 64th; a - acciaccatura
+ - note tied to previous; . - note dotted; .. - note double dotted
Uncapitalized letters represent notes that are staccato (1/2 duration)
Irregular groupings are notated above the duration line
Duration letters will always appear directly above the note/fret number it represents the
duration for.  Duration letters with no fret number below them represent rests.  Multi-
bar rests are notated in the form Wxn, where n is the number of bars to rest for.  Low
melody durations appear below the staff

Tablature Legend
----------------
 h   - hammer-on
 p   - pull-off
 b   - bend
 pb  - pre-bend
 r   - bend release (if no number after the r, then release immediately)
 /\  - slide into or out of (from/to "nowhere")
 s   - legato slide
 S   - shift slide
<n>  - natural harmonic
[n]  - artificial harmonic
n(n) - tapped harmonic
 ~   - vibrato
 tr  - trill
 T   - tap
 TP  - trem. picking
 PM  - palm muting
\n/  - tremolo bar dip; n = amount to dip
 \n  - tremolo bar down
 n/  - tremolo bar up
/n\  - tremolo bar inverted dip
 =   - hold bend; also acts as connecting device for hammers/pulls
 <>  - volume swell (louder/softer)
 x   - on rhythm slash represents muted slash
 o   - on rhythm slash represents single note slash

Misc Legend
-----------
 |  - bar
||  - double bar
||o - repeat start
o|| - repeat end
*|  - double bar (ending)
 :  - bar (freetime)
 $  - Segno
 &  - Coda
Tempo markers - <E/E./Q/Q./H/H.> = BPM(8/16=s8/s16), where s8 = swing 8ths, s16 = swing 16ths


*****************************************************************************************
*****************************************************************************************





Comments


Popular Misc Television tabs & chords
Bear In The Big Blue House - Goodby Song Chords
Im Just A Bill Chords
Muppets Theme Chords
Breathe Tabs
Callan Theme Tabs
Despreocupado Theme Tabs
Doug Theme Tune Tabs
Gummie Bears Tabs
Price Is Right Tabs
Star Trek The Next Generation Theme 1 Tabs


Song lyrics



↑ Back to top | Tablatures and chords are parodies/interpretations of the original songs. You may use it for private study, scholarship, research or language learning purposes only
© 2014 AZChords.com Contact us | Privacy policy | DMCA | Add/correct tabs | Request tabs | Top 50 tabs