» » »

Pimp My Ride Bass tabs (ver.1)

Artists:  A B C D E F G H I J K L M N O P Q R S T U V W X Y Z # 

Pimp My Ride Bass tabs (ver.1)

Misc Television
Rating:
0/5 (0 votes)

Hard to play? Try these video lessons and learn fast.
                (Theme)
PIMP MY RIDE - Theme Song



I can't believe no one has tabbed this! Such a funky theme song!
Anyways, here's my take on it. 
Actually I'm pretty sure it's 100% now! Enjoy :D

Edit 9/4/2011 with corrections.


G|---------------|
D|-9-9-9-10-9----|
A|------------10-|
E|---------------|

G|-----------------------------|
D|----------------------5h7----|
A|---/7------------------------|
E|-0-----0--3-4-5--------------|
                        p

G|----------------------7---8--|
D|-----------------------------|
A|---/7---------------5---6----|
E|-0-----0--7-6-5--------------|
                      s p s p


G|--------------------------------|
D|-------------------5h7p5---7----|
A|---/7--------------------5------|
E|-0-----0--3-4-5-----------------|


G|----------------------7---8--|
D|-----------------------------|
A|---/7---------------5---6----|
E|-0-----0--7-6-5--------------|
                      s p s p

G|----------------------|
D|-----------999-1010~--|
A|-77-101010------------|
E|----------------------|
(10 = 10th fret, not 1 then 0)


Please rate and comment! Thanks.
            
Hard to play? Try these video lessons and learn fast. | Correct




comments powered by Disqus
↑ Back to top | Tablatures and chords are parodies/interpretations of the original songs. You may use it for private study, scholarship, research or language learning purposes only