» » »

Phoebe From Friends Smelly Cat Tabs (ver.1)

Artists:  A B C D E F G H I J K L M N O P Q R S T U V W X Y Z # 

Phoebe From Friends Smelly Cat Tabs (ver.1)

Misc Television
Rating:
0/5 (0 votes)

Hard to play? Try these video lessons and learn fast.
                Smelly Cat

Verse/Chorus (Play twice) Distortion off and Reverb off
E||--0-----0-0-0-0-----0-0-0-0-----0-0-0-0-----0-0-0-2-----2-2-2-3-
B||--0-----0-0-0-0-----0-0-0-2-----2-2-2-2-----2-2-2-3-----3-3-3-3-
G||--1-----1-1-1-1-----1-1-1-2-----2-2-2-2-----2-2-2-2-----2-2-2-0-
D||--2-----2-2-2-2-----2-2-2-2-----2-2-2-2-----2-2-2-0-----0-0-0-0-
A||--2-----2-2-2-2-----2-2-2-0-----0-0-0-0-----0-0-0-0-----0-0-0-2-
E||--0-----0-0-0-0-----0-0-0-0-----0-0-0-0-----0-0-0-X-----X-X-X-3-

E||----3-3-3-0-----0-0-0-0-----0-0-0--||
B||----3-3-3-0-----0-0-0-0-----0-0-0--||
G||----0-0-0-1-----1-1-1-1-----1-1-1--||
D||----0-0-0-2-----2-2-2-2-----2-2-2--||
A||----2-2-2-2-----2-2-2-2-----2-2-2--||
E||----3-3-3-0-----0-0-0-0-----0-0-0--||


"DEDICATED TO BRENDAN, may he continue to practice."
            
Hard to play? Try these video lessons and learn fast. | Correct




comments powered by Disqus
↑ Back to top | Tablatures and chords are parodies/interpretations of the original songs. You may use it for private study, scholarship, research or language learning purposes only