» » »

Optimum Online Commercial Bass tabs (ver.1)

Artists:  A B C D E F G H I J K L M N O P Q R S T U V W X Y Z # 

Optimum Online Commercial Bass tabs (ver.1)

Misc Television
Rating:
0/5 (0 votes)

Hard to play? Try these video lessons and learn fast.
                (Theme)
-------------------------------------------------------------------------------
			    Commercial Riff - Optimum Online
-------------------------------------------------------------------------------


Tuning: Standard

Here's the two litle bass riffs that come at the end of some of the new Optimum 

G|-----------3---5-----5-3--------------------------------------|
D|--------------------------5-3---3--------3-----3--------3-5---|
A|3--3--------------------------------------------------------3-|
E|-----x-x-x---x-----x----------x----x-x-x-----x------x-x-------|


G|----------3--5---8-----------3-5-----------------------|
D|---------------------------------5-3-1-----------------|
A|3--3-x--x------x-------x--x----------------3-1-3-------|
E|-------------------------------------------------------|
            
Hard to play? Try these video lessons and learn fast. | Correct




comments powered by Disqus
↑ Back to top | Tablatures and chords are parodies/interpretations of the original songs. You may use it for private study, scholarship, research or language learning purposes only