» » »

Misc Television, Optimum Commercial Bass tabs (ver.1)

Artists:  A B C D E F G H I J K L M N O P Q R S T U V W X Y Z # 

Optimum Commercial Bass tabs (ver.1)

Misc Television Tabs
 Rating:
4/5 (4 votes)
Optimum Commercial lessons Tabs too difficult? Try these video lessons and learn fast
1
                (Theme)
-------------------------------------------------------------------------------
			     Optimum Online Song 
-------------------------------------------------------------------------------


Tuning: Standard

I'm not really a bass player but I figured this song out on the guitar.
 

G|---------|-----------|-----------------|-----------------------------------|
D|---------|-----------|-----------------|-----------------------------------|
A|---------|-7--5---7--|-5---7-----------|----------------5---7--------------|
E|--0---0--|-----------|---------3---3---|---5---3---5-----------------------|


G|---------|-----------|-----------------|-----------------------------------|
D|---------|-----------|-----------------|-----------------------------------|
A|---------|-7--5---7--|-5---7-----------|----------------5---7--------------|
E|--0---0--|-----------|---------3---3---|---5--3---5---------------0--------|
            
Submit corrections

comments powered by Disqus
↑ Back to top | Misc Television Bass for Optimum Commercial. Lyrics for acoustic guitar and electric guitar. 1 Tablatures and chords are parodies/interpretations of the original songs. You may use it for private study, scholarship, research or language learning purposes only