» » »

North Of 6 Tabs (ver.1)

Artists:  A B C D E F G H I J K L M N O P Q R S T U V W X Y Z # 

North Of 6 Tabs (ver.1)

Misc Television
Rating:
0/5 (0 votes)

Hard to play? Try these video lessons and learn fast.
                "(0)
(Theme)
-------------------------------------------------------------------------------
-------------------------------------------------------------------------------

Tuning: Standard Acoustic

e|--------3--------5-5h7-----3--------------------3--------9/11-9------------|
B|-1~-1-3---1~-5-7-------1-3---1-3-4-6-4-1-3~-1-3---1~-7-9--------8-6-3-1-3-4|
G|---------------------------------------------------------------------------|
D|---------------------------------------------------------------------------|
A|---------------------------------------------------------------------------|
E|---------------------------------------------------------------------------|

e|---------------------------------------------------------------------------|
B|-6-4-1-3~-3h4-6~-6-6-4-3-4~-4-4-3-1-4~-4-4-3-1-3~-3h4-6~-6-6-4-3-4~-4-4-3-1|
G|---------------------------------------------------------------------------|
D|---------------------------------------------------------------------------|
A|---------------------------------------------------------------------------|
E|---------------------------------------------------------------------------|

e|-------------------3--------5-5h7-----3--------------------3--------9/11-9-|
B|-4~-4-4-3-1-3~-1-3---1~-5-7-------1-3---1-3-4-6-4-1-3~-1-3---1~-7-9--------|
G|---------------------------------------------------------------------------|
D|---------------------------------------------------------------------------|
A|---------------------------------------------------------------------------|
E|---------------------------------------------------------------------------|

e|---------------------------------------------------------------------------|
B|-8-6-3-1-3-4-6-4h3-1~------------------------------------------------------|
G|---------------------------------------------------------------------------|
D|---------------------------------------------------------------------------|
A|---------------------------------------------------------------------------|
E|---------------------------------------------------------------------------|

There it is enjoy! Play it on an acoustic to make it sound genuine. If you think you 
a better tab for this song then submit it and I'll have a look. Thanks!

| ~ wiggle string up and down at same speed as in song
| /  slide up
| \  slide down
| h  hammer-on
| p  pull-off
| ~  vibrato
| +  harmonic
| x  Mute note
===============================================================================
"            
Hard to play? Try these video lessons and learn fast. | Correct




comments powered by Disqus
↑ Back to top | Tablatures and chords are parodies/interpretations of the original songs. You may use it for private study, scholarship, research or language learning purposes only