» » »

Night Court Bass tabs (ver.2)

Artists:  A B C D E F G H I J K L M N O P Q R S T U V W X Y Z # 

Night Court Bass tabs (ver.2)

Misc Television
Rating:
0/5 (0 votes)

Tabs too difficult? Try these video lessons and learn fast.
                (Theme)
G----------------|----------------|
D-----8----------|----------------|
A----------------|----------------|
E--6-------4--5--|6--6--6--6------|  X6


G--------3-------|--------3-------|----------------|
D----------------|----------------|----------------|
A----------------|----------------|----------------|
E--1--1----------|--1--1----------|--1-1--2--3--4--|

G--------3-------|--------3-------|
D----------------|----------------|
A----------------|----------------|
E--1--1----------|--1--1----------|
            
Tabs too difficult? Try these video lessons and learn fast.




comments powered by Disqus
↑ Back to top | Tablatures and chords are parodies/interpretations of the original songs. You may use it for private study, scholarship, research or language learning purposes only