» » »

Misc Television, Neds Declassified Tabs (ver.2)

Artists:  A B C D E F G H I J K L M N O P Q R S T U V W X Y Z # 

Neds Declassified Tabs (ver.2)

Misc Television Tabs
 Rating:
4/5 (4 votes)
Neds Declassified lessons Tabs too difficult? Try these video lessons and learn fast
1
                ----------------------------------------------------------------------------
                             Ned's Declassified - Misc.
----------------------------------------------------------------------------

Tuning: 1/2 step down

Um this is a pretty easy song if you can play chords.....

Enjoy.

e|----------------------------------------------------------------------|
B|----------------------------------------------------------------------|
G|---9--x---7--7--------------------------------------------------------| x3
D|---9--x---7--7---5--5/7--7--------------------------------------------|
A|---7--x---5--5---5--5/7--7--------------------------------------------|
E|-----------------3--3/5--5--------------------------------------------|

e|-------------------------------------------------------------------------|
B|-------------------------------------------------------------------------|
G|-------------------------------------------------------------------------|
D|---5--5--5--5--5--5--5--5---7--7--7--7--7--7--7--7-----------------------|
A|---5--5--5--5--5--5--5--5---7--7--7--7--7--7--7--7-----------------------|
E|---3--3--3--3--3--3--3--3---5--5--5--5--5--5--5--5-----------------------|

e|----------------------------------------------------------------------|
B|----------------------------------------------------------------------|
G|---9------------------------------------------------------------------| x3
D|---9---5---7---5------------------------------------------------------|
A|---7---5---7---5------------------------------------------------------|
E|-------3---5---3------------------------------------------------------|

e|-------------------------------------------------------------------------|
B|-------------------------------------------------------------------------|
G|---9--9--9--9---7--7--7--7---------------------7-------------------------|
D|---9--9--9--9---7--7--7--7---5--5--5--5/7--7---7-------------------------|
A|---7--7--7--7---5--5--5--5---5--5--5--5/7--7---5-------------------------|
E|-----------------------------3--3--3--3/5--5-----------------------------|


W00T you just learned Ned's Declassified School Survival Guide Theme Song!


| /  slide up
| \  slide down
| h  hammer-on
| p  pull-off
| x  Mute note
============================================================================
            
Submit corrections

comments powered by Disqus
↑ Back to top | Misc Television Tabs for Neds Declassified. Lyrics for acoustic guitar and electric guitar. 1 Tablatures and chords are parodies/interpretations of the original songs. You may use it for private study, scholarship, research or language learning purposes only