» » »

Misc Television, Nba On Nbc Tabs (ver.3)

Artists:  A B C D E F G H I J K L M N O P Q R S T U V W X Y Z # 

Nba On Nbc Tabs (ver.3)

Misc Television Tabs
Rating:
0/5 (0 votes)
Nba On Nbc lessons Tabs too difficult? Try these video lessons and learn fast
                (Theme)
Misc Television
NBA On NBC Theme
TV Themes
Tuning: Standard

Orchestra Intro:
|-17\---12-12----12-13-15--------------------|
|-17\---------15-----------13p12----15-------|
|--------------------------------12----------|
|--------------------------------------------|
|--------------------------------------------|
|--------------------------------------------|

Main Theme:
|-------------------------------------------------------------------------|
|----13-13-12----------12-------------------------------------------------|
|-14----------14-12-14----14--14-12---------------------------------------|
|-----------------------------------15-14--------12----------12-14--12-14-|
|-----------------------------------------15--15----15-14-15--------------|
|-------------------------------------------------------------------------|
(Repeat x4)

(0:27)
|-------------------------------------------|
|----------15-13----------------------------|
|-14-15-15--------12-14--14-12----12--------|
|------------------------------15----15-14--|
|-------------------------------------------|
|-------------------------------------------|

|------------------12--15--17-17--15---------|
|-------15-13--15----------------------------|
|-15-15--------------------------------------|
|--------------------------------------------|
|--------------------------------------------|
|--------------------------------------------|

__________________________________
(0:34)
|--------------------------------------------|
|-----------15-13----------------------------|
|-----15-15--------12-14--14-12----12--------|
|-------------------------------15----15-14--|
|--------------------------------------------|
|--------------------------------------------|

|------------------12--15--17-17--15---------|
|-------15-13--15----------------------------|
|-15-15--------------------------------------|
|--------------------------------------------|
|--------------------------------------------|
|--------------------------------------------|
(Repeat last two bars)
__________________________________

(0:46)
|--------------------------------------------|
|-----------15-13----------------------------|
|-----15-15--------12-14--14-12----12--------|
|-------------------------------15----15-14--|
|--------------------------------------------|
|--------------------------------------------|

|------------------12-----------14----------------|
|-------15-13--15------15p13p12------17p15p13--17-|
|-15-15-------------------------------------------|
|-------------------------------------------------|
|-------------------------------------------------|
|-------------------------------------------------|

Guitar Break: (0:53)
|------------------------------------------------------|
|------------------------------------------------------|
|------------------------------------------------------|
|------------5--7------------------------3--5----------|
|-[7]-----7--------5--3--2--5---5~----5--------3--2----|
|------------------------------------------------------|
     PM|--------------------|     PM|---------------|

|-------------------------------------------------|
|-------------------------------------------------|
|-------------------------------------------------|
|-------------------------------------------------|
|-0---2---3---5---7---8---10---12-----------------|
|-------------------------------------------------|

Horns: (1:04)
|-----12--13-12------------------12--------------------------|
|-13------------13-12------12-15----15-12-------------12-----|
|-----------------------------------------14--12--14-----14--|
|------------------------------------------------------------|
|------------------------------------------------------------|
|------------------------------------------------------------|

|-----12--13-12------------------12-----------------------15b17~~---|
|-13------------13-12------12-15----15-12-------------12------------|
|-----------------------------------------14--12--14----------------|
|-------------------------------------------------------------------|
|-------------------------------------------------------------------|
|-------------------------------------------------------------------|

Main Theme: (1:20)
|-----------------------------------------------------------------------|
|--13-13-12----------12-------------------------------------------------|
|-----------14-12-14----14--14-12---------------------------------------|
|---------------------------------15-14--------12----------12-14--12-14-|
|---------------------------------------15--15----15-14-15--------------|
|-----------------------------------------------------------------------| (x3)

|----------------------------------------------------|
|--13-13-12----------12------------------------------|
|-----------14-12-14----14--14-12--------------------|
|---------------------------------15-14--------12----|
|---------------------------------------15--15-------|
|----------------------------------------------------|

|---------------------------------------|--------------------| 
|-------------------------------12--13--|-13-13-12-----------| 
|---------------------12---14-----------|----------14-12-14\-| 
|------12---14---15---------------------|--------------------| 
|-15------------------------------------|--------------------| 
|---------------------------------------|--------------------| 

Piano Break: (1:50)
|-------------------------------------------------------|
|-------------------------------------------------------|
|-14---12-----12----------------------------------------|
|----------15----15-15---------------12-14--12-14-------|
|-----------------------12---14--15---------------------|
|-------------------------------------------------------| (x6)

Outro: (2:27)
|-----------------------------------------|
|-----------------------------------------|
|-14---12-----12--------------------------|
|----------15----15-15------------14------|
|-----------------------12---14-----------|
|-----------------------------------------|

Legend:
~   - Vibrato
[#] - Pinch Harmonic
b   - Bend
PM  - Palm-Mute
p   - Pull-Off
            
Submit corrections

comments powered by Disqus
↑ Back to top | Misc Television Tabs for Nba On Nbc. Lyrics for acoustic guitar and electric guitar. Tablatures and chords are parodies/interpretations of the original songs. You may use it for private study, scholarship, research or language learning purposes only