>
 >
Mxc Theme

Mxc Theme Guitar Tabs

Misc Television - Mxc Theme chords, tabs, tablatures, lyrics

Guitar lessons | Add/correct | Request | Top 50 tabs Artists:  A B C D E F G H I J K L M N O P Q R S T U V W X Y Z 0-9

Mxc Theme Guitar Tabs – Misc Television

CD, Sheet music, Poster

Do you like Mxc Theme? Share with your friends now
TabsTabs v2
MXC THEME SONG
   --------------

   Tuning:EADGBe

   Key:
   ----
   . = Palm Mute
   ~ = Vibrato
   b = Bend
   / = Slide
   * = Harmonic


   Riff #1:
   --------
   Play 3x

 E |------------------------|-------------------------|
 B |------------------------|--------------6---6---6--|
 G |------------------------|--------------5---5---5--|
 D |---------2-----------3--|---------4----3---3---3--|
 A |-0-3-0-3-----0-3-0-3----|-0-3-0-3-----------------|
 E |------------------------|-------------------------|
     . . . . ~~~ . . . . ~~~  . . . . ~~~


   Riff #2:
   --------
   Play 2x

 E |---------------------------------|------------------------------|
 B |---------------------------------|--------------------6-6-6-----|
 G |-5-5-5-5-5-5-5-5-5-5-5-5-5-5-5-5-|-7-7-7-7-7-7-7-7----5-5-5-----|
 D |-5-5-5-5-5-5-5-5-5-5-5-5-5-5-5-5-|-7-7-7-7-7-7-7-7----3-3-3-----|
 A |-3-3-3-3-3-3-3-3-3-3-3-3-3-3-3-3-|-5-5-5-5-5-5-5-5--------------|
 E |---------------------------------|------------------------------|
     . . . . . . . . . . . . . . . .   . . . . . . . .


   Riff #3:
   --------
 
 E |------------------|------------------|------------------|------------------|
 B |------------------|--6-6-6-6-6-6-6-6-|--7-7-7-7-7-7-7-7-|--6-6-6-6-6-6-6-6-|
 G |--5-5-5-5-5-5-5-5-|--5-5-5-5-5-5-5-5-|--6-6-6-6-6-6-6-6-|--5-5-5-5-5-5-5-5-|
 D |--5-5-5-5-5-5-5-5-|--3-3-3-3-3-3-3-3-|--4-4-4-4-4-4-4-4-|--3-3-3-3-3-3-3-3-|
 A |--3-3-3-3-3-3-3-3-|------------------|------------------|------------------|
 E |------------------|------------------|------------------|------------------|

 E |------------------|------------------|------------------|------------------|
 B |------------------|--6-6-6-6-6-6-6-6-|--7-7-7-7-7-7-7-7-|--6-6-6-6-6-6-6-6-|
 G |--5-5-5-5-5-5-5-5-|--5-5-5-5-5-5-5-5-|--6-6-6-6-6-6-6-6-|--5-5-5-5-5-5-5-5-|
 D |--5-5-5-5-5-5-5-5-|--3-3-3-3-3-3-3-3-|--4-4-4-4-4-4-4-4-|--3-3-3-3-3-3-3-3-|
 A |--3-3-3-3-3-3-3-3-|------------------|------------------|------------------|
 E |------------------|------------------|------------------|------------------|
                                                             Play with 1st bar
                                                             of Riff #4 if 2 
                                                             guitars. If 1 dont
   Riff #4:                                                  play.   
   --------
   There are 2 guitars for this part - the bass on the single notes, 
   and the guitar does power chords and harmonics.  It's tabbed so
   you can play both with one guitar.

 E |------------------|------------------|------------------|------------------|
 B |------------------|------------------|------------------|------------------|
 G |---2-0------------|---2-0---0--------|---2-0---0--------|--2-0-------------|
 D |-------3-0--5-----|-------3----7-----|-------3----3-----|------3-0--5------|
 A |------------5-----|------------7-----|------------3-----|-----------5------|
 E |------------3-----|------------5-----|------------1-----|-----------3------|

 E |------------------|------------------|------------------|------------------|
 B |------------------|------------------|------------------|------------------|
 G |--5*--------------|--2-0---0---------|--2-0---0---------|--2-0-------------|
 D |------5*----5-----|------3-----7-----|------3-----3-----|------3-0--5/17---|
 A |------------5-----|------------7-----|------------3-----|-----------5/17---|
 E |------------3-----|------------5-----|------------1-----|-----------3/15---|



   Riff #5:
   --------

 E |------------------|------------------|------------------|------------------|
 B |------------5-6---|-6-7---7--6-6-6-6-|------------5-6---|-6-7---7--6-6-6-6-|
 G |---5--------4-5---|-5-6---6--5-5-5-5-|---5--------4-5---|-5-6---6--5-5-5-5-|
 D |---5--------2-3---|-3-4---4--3-0-3-0-|---5--------2-3---|-3-4---4--3-0-3-0-|
 A |---3--------------|------------------|---3--------------|------------------|
 E |------------------|------------------|------------------|------------------|

 

   Riff #1:
   --------
   Play 2x

 E |------------------------|-------------------------|
 B |------------------------|--------------6---6---6--|
 G |------------------------|--------------5---5---5--|
 D |---------2-----------3--|---------4----3---3---3--|
 A |-0-3-0-3-----0-3-0-3----|-0-3-0-3-----------------|
 E |------------------------|-------------------------|
     . . . . ~~~ . . . . ~~~  . . . . ~~~


   Riff #2:
   --------
   Play 2x

 E |---------------------------------|------------------------------|
 B |---------------------------------|--------------------6-6-6-----|
 G |-5-5-5-5-5-5-5-5-5-5-5-5-5-5-5-5-|-7-7-7-7-7-7-7-7----5-5-5-----|
 D |-5-5-5-5-5-5-5-5-5-5-5-5-5-5-5-5-|-7-7-7-7-7-7-7-7----3-3-3-----|
 A |-3-3-3-3-3-3-3-3-3-3-3-3-3-3-3-3-|-5-5-5-5-5-5-5-5--------------|
 E |---------------------------------|------------------------------|
     . . . . . . . . . . . . . . . .   . . . . . . . . 


   Riff #3:
   --------

 E |------------------|------------------|------------------|------------------|
 B |------------------|--6-6-6-6-6-6-6-6-|--7-7-7-7-7-7-7-7-|--6-6-6-6-6-6-6-6-|
 G |--5-5-5-5-5-5-5-5-|--5-5-5-5-5-5-5-5-|--6-6-6-6-6-6-6-6-|--5-5-5-5-5-5-5-5-|
 D |--5-5-5-5-5-5-5-5-|--3-3-3-3-3-3-3-3-|--4-4-4-4-4-4-4-4-|--3-3-3-3-3-3-3-3-|
 A |--3-3-3-3-3-3-3-3-|------------------|------------------|------------------|
 E |------------------|------------------|------------------|------------------|

 E |------------------|------------------|------------------|------------------|
 B |------------------|--6-6-6-6-6-6-6-6-|--7-7-7-7-7-7-7-7-|--6-6-6-6-6-6-6-6-|
 G |--5-5-5-5-5-5-5-5-|--5-5-5-5-5-5-5-5-|--6-6-6-6-6-6-6-6-|--5-5-5-5-5-5-5-5-|
 D |--5-5-5-5-5-5-5-5-|--3-3-3-3-3-3-3-3-|--4-4-4-4-4-4-4-4-|--3-3-3-3-3-3-3-3-|
 A |--3-3-3-3-3-3-3-3-|------------------|------------------|------------------|
 E |------------------|------------------|------------------|------------------|
                                                             Play with 1st bar
                                                             of Riff #4 if 2 
                                                             guitars. If 1 dont
   Riff #4:                                                  play.   
   --------

 E |------------------|------------------|------------------|------------------|
 B |------------------|------------------|------------------|------------------|
 G |---2-0------------|---2-0---0--------|---2-0---0--------|--2-0-------------|
 D |-------3-0--5-----|-------3----7-----|-------3----3-----|------3-0--5------|
 A |------------5-----|------------7-----|------------3-----|-----------5------|
 E |------------3-----|------------5-----|------------1-----|-----------3------|
 
 E |------------------|------------------|------------------|------------------|
 B |------------------|------------------|------------------|------------------|
 G |--5*--------------|--2-0---0---------|--2-0---0---------|--2-0-------------|
 D |------5*----5-----|------3-----7-----|------3-----3-----|------3-0--5/17---|
 A |------------5-----|------------7-----|------------3-----|-----------5/17---|
 E |------------3-----|------------5-----|------------1-----|-----------3/15---|



   Riff #5:
   --------
   Play 2x

 E |------------------|------------------|------------------|------------------|
 B |------------5-6---|-6-7---7--6-6-6-6-|------------5-6---|-6-7---7--6-6-6-6-|
 G |---5--------4-5---|-5-6---6--5-5-5-5-|---5--------4-5---|-5-6---6--5-5-5-5-|
 D |---5--------2-3---|-3-4---4--3-0-3-0-|---5--------2-3---|-3-4---4--3-0-3-0-|
 A |---3--------------|------------------|---3--------------|------------------|
 E |------------------|------------------|------------------|------------------|



  Solo:
  -----
  Play 2x

 E |-------------------------------------|-------------------------------------|
 B |-------------------------------------|-------------------------------------|
 G |-----------17------------------17----|-----------17-------17b(19)b(17)-----|
 D |--------16------------------16-------|--------16---------------------------|
 A |----15--------------15-15------------|----15-------------------------------|
 E |-------------------------------------|-------------------------------------|
               ~~~~~~~~            ~~~~~             ~~~~~~~~~        ~~~~~~~~


  Riff #6:
  ----------------
  Play 2x

 E |------------------|------------------|------------------|------------------| < On 2nd time dont  play last bar,
 B |------------------|--6-6-6-6-6-6-6-6-|--7-7-7-7-7-7-7-7-|--6-6-6-6-6-6-6-6-| < skip to Riff #4 
 G |--5-5-5-5-5-5-5-5-|--5-5-5-5-5-5-5-5-|--6-6-6-6-6-6-6-6-|--5-5-5-5-5-5-5-5-| <
 D |--5-5-5-5-5-5-5-5-|--3-3-3-3-3-3-3-3-|--4-4-4-4-4-4-4-4-|--3-3-3-3-3-3-3-3-| < 
 A |--3-3-3-3-3-3-3-3-|------------------|------------------|------------------| < 2nd guitar, finish off the whole
 E |------------------|------------------|------------------|------------------| < thing.
 
   2nd guitar play this:
 E |----------------------------|---------------------------|----------------------------|---------------------------|
 B |----------------------------|---------------------------|----------------------------|---------------------------|
 G |-12/17-17-17-17-17-17-17-17-|-17-17-17-17-17-17-17-17---|-12/17-17-17-17-17-17-17-17-|-17-17-17-17-17-17-17-17---|
 D |----------------------------|---------------------------|----------------------------|---------------------------|
 A |----------------------------|---------------------------|----------------------------|---------------------------|
 E |----------------------------|---------------------------|----------------------------|---------------------------|



   Riff #4:                                                    
   --------

 E |------------------|------------------|------------------|------------------|
 B |------------------|------------------|------------------|------------------|
 G |---2-0------------|---2-0---0--------|---2-0---0--------|--2-0-------------|
 D |-------3-0--5-----|-------3----7-----|-------3----3-----|------3-0--5------|
 A |------------5-----|------------7-----|------------3-----|-----------5------|
 E |------------3-----|------------5-----|------------1-----|-----------3------|

 E |------------------|------------------|------------------|------------------|
 B |------------------|------------------|------------------|------------------|
 G |--5*--------------|--2-0---0---------|--2-0---0---------|--2-0-------------|
 D |------5*----5-----|------3-----7-----|------3-----3-----|------3-0--5/17---|
 A |------------5-----|------------7-----|------------3-----|-----------5/17---|
 E |------------3-----|------------5-----|------------1-----|-----------3/15---|



   Riff #5:
   --------
   Play 2x

 E |------------------|------------------|------------------|------------------|
 B |------------5-6---|-6-7---7--6-6-6-6-|------------5-6---|-6-7---7--6-6-6-6-|
 G |---5--------4-5---|-5-6---6--5-5-5-5-|---5--------4-5---|-5-6---6--5-5-5-5-|
 D |---5--------2-3---|-3-4---4--3-0-3-0-|---5--------2-3---|-3-4---4--3-0-3-0-|
 A |---3--------------|------------------|---3--------------|------------------|
 E |------------------|------------------|------------------|------------------|



   Riff #1:
   --------
   Play 2x

 E |------------------------|-------------------------|
 B |------------------------|--------------6---6---6--|
 G |------------------------|--------------5---5---5--|
 D |---------2-----------3--|---------4----3---3---3--|
 A |-0-3-0-3-----0-3-0-3----|-0-3-0-3-----------------|
 E |------------------------|-------------------------|
     . . . . ~~~ . . . . ~~~  . . . . ~~~


   Last Riff
   ---------
   Play 2x

 E |------------------------|-------------------------|
 B |------------------------|--------------6---6---6--|
 G |------------------------|--------------5---5---5--|
 D |---------2-----------3--|---------4----3---3---3--|
 A |-0-3-0-3-----0-3-0-3----|-0-3-0-3-----------------|
 E |------------------------|-------------------------|
     . . . . ~~~ . . . . ~~~  . . . . ~~~

   2nd guitar play this:
 E |----------------------------|---------------------------|----------------------------|---------------------------|
 B |----------------------------|---------------------------|----------------------------|---------------------------|
 G |-12/17-17-17-17-17-17-17-17-|-17-17-17-17-17-17-17-17---|-12/17-17-17-17-17-17-17-17-|-17-17-17-17-17-17-17-17---|
 D |----------------------------|---------------------------|----------------------------|---------------------------|
 A |----------------------------|---------------------------|----------------------------|---------------------------|
 E |----------------------------|---------------------------|----------------------------|---------------------------|



  Ending 
  ------
  You can either do vibrato o make the last note short.

 E |------------------------------------------------------|
 B |------------------------------------------------------|
 G |-0----------------------------------------------------|
 D |-0----------------------------------------------------|
 A |-2----------------------------------------------------|
 E |-3----------------------------------------------------|
     ~~~~~~~~~~~~~~~~~~~~~~~~~~~~~~~~~~~~~~~~~~~~~~~~~~~~~      

   2nd guitar
 E |------------------------------------------------------|
 B |------------------------------------------------------|
 G |-12---------------------------------------------------|
 D |------------------------------------------------------|
 A |------------------------------------------------------|
 E |------------------------------------------------------|
     ~~~~~~~~~~~~~~~~~~~~~~~~~~~~~~~~~~~~~~~~~~~~~~~~~~~~~  

    There are some things i left out, like holding a note out longer and    skipping
some others, but u could just listen to the song 4 them.
    I might add them later, but this is good enough for now. 
                                                                                           -Keith Emanuel





Comments


Popular Misc Television tabs & chords
Family Guy Theme Bass Tabs
Diffrent Strokes Theme Chords
Fall Guy Chords
Family Guy Theme 1 Chords
Antiques Roadshow Theme Tabs
Beavis And Butthead 1 Tabs
Buffy The Vampire Slayer Theme Tabs
Colbert Report Theme Tabs
The Office Theme 2 Tabs
Better With You Theme Ukulele


Song lyrics



↑ Back to top | Tablatures and chords are parodies/interpretations of the original songs. You may use it for private study, scholarship, research or language learning purposes only
© 2014 AZChords.com Contact us | Privacy policy | DMCA | Add/correct tabs | Request tabs | Top 50 tabs