» » »

Munster Tabs

Artists:  A B C D E F G H I J K L M N O P Q R S T U V W X Y Z # 

Munster Tabs

(ver. 1)
Misc Television Tabs
 Rating:
4/5 (4 votes)
    Munster lessons Tabs too difficult? Try these video lessons and learn fast
                Someone requested the Munsters Theme. This is what I have sussed..
Anyone know who wrote it?

-0-3-0-6-7-12-8-7-5-3-5-7------------
--------------------------0-0-0-2-4-5
-------------------------------------
-------------------------------------
-------------------------------------
-------------------------------------

------------------------------------------
-3-10-10-10-8-7-8-5-8-5-5-5-10-8-7-8-5-7-3
------------------------------------------
------------------------------------------
------------------------------------------
------------------------------------------

-0-3-0-6-7-12-8-7-5-3-5-7------------
--------------------------0-0-0-2-4-5
-------------------------------------
-------------------------------------
-------------------------------------
-------------------------------------
            
Submit corrections

↑ Back to top | Misc Television Tabs for Munster. Lyrics for acoustic guitar and electric guitar. Tablatures and chords are parodies/interpretations of the original songs. You may use it for private study, scholarship, research or language learning purposes only