» » »

M T V Tabs (ver.1)

Artists:  A B C D E F G H I J K L M N O P Q R S T U V W X Y Z # 

M T V Tabs (ver.1)

Misc Television
Rating:
0/5 (0 votes)

Hard to play? Try these video lessons and learn fast.
                


James,

Here is the MTV riff for you to archive.



             MTV Theme



Here is the tab for the MTV riff: (the way I play it anyway..)

------------------------------------------------
------------------------------------------------
------------------------------------------------
-5---------------------5------------------------
-3---5--5---8--8---8---3--5--5---8--8--8--10-7--
-----3--3---6--6---6------3--3---6--6--6--8--5--
                                 ^^^^^^^^^^^^^this part is tricky...


------------------------------------------------
------------------------------------------------
------------------------------------------------
-7----------------------------------------------
-5---7--7---10-10\9-/10--10-10\9-/10------------
-----5--5---8--8-\7-/8---8--8-\7-/8-------------



Hope you like it.  Mail any flames, suggestions to me.

Ed

|                         Ed Westberg                          |
|                                                              |
|             Department of Biomedical Engineering             |
|          Vanderbilt University, Nashville Tennessee          | 
            
Hard to play? Try these video lessons and learn fast. | Correct




comments powered by Disqus
↑ Back to top | Tablatures and chords are parodies/interpretations of the original songs. You may use it for private study, scholarship, research or language learning purposes only