>
 >
Monk - Start The Watch

Monk - Start The Watch Guitar Tabs

Misc Television - Monk - Start The Watch chords, tabs, tablatures, lyrics

Guitar lessons | Add/correct | Request | Top 50 tabs Artists:  A B C D E F G H I J K L M N O P Q R S T U V W X Y Z 0-9

Monk - Start The Watch Guitar Tabs – Misc Television

CD, Sheet music, Poster

Do you like Monk - Start The Watch? Share with your friends now
Tabs
Song Title: Start The Watch
Season 1 - Episode 9
"Mr. Monk and the Marathon Man" 


NOTE: Most of the parts are included.
The only thing missing is the bass
and percussive instruments. This is
taken directly from my Guitar Pro tab. 



Keyboard



      Q    E  Q    Q    E     E  Q    E  Q     E  E      Q    E  Q    Q    E   
E||------------------------|-------------------------|------------------------|
B||--------9-------9-------|-----9------------11--9--|--------9-------9-------|
G||--10-------9---------8--|----------7--7-----------|--10-------9---------8--|
D||------------------------|-------------------------|------------------------|
A||------------------------|-------------------------|------------------------|
E||------------------------|-------------------------|------------------------|


     E  Q    E  H            Q    E  Q    Q    E     E  Q    E  Q     E  E   
----------------------|------------------------|-------------------------|
-----9----------------|--------9-------9-------|-----9------------11--9--|
----------7--7--------|--10-------9---------8--|----------7--7-----------|
----------------------|------------------------|-------------------------|
----------------------|------------------------|-------------------------|
----------------------|------------------------|-------------------------|


                          
   Q    E  Q    Q    E     E  Q    E  H           W                 
------------------------|----------------------|-------------------|
--------9-------9-------|-----9----------------|-------------------|
--10-------9---------8--|----------7--7--------|--L----------------|
------------------------|----------------------|-------------------|
------------------------|----------------------|-------------------|
------------------------|----------------------|-------------------|


  W                                                                             
-------------------|-------------------|-------------------|-------------------|
-------------------|-------------------|-------------------|-------------------|
--L----------------|-------------------|-------------------|-------------------|
-------------------|-------------------|-------------------|-------------------|
-------------------|-------------------|-------------------|-------------------|
-------------------|-------------------|-------------------|-------------------|


  Q     Q.      Q.         Q     H.                            
-----------------------|----------------------|-------|-------|
-------12------13------|--14----15------------|-------|-------|
-----------------------|----------------------|-------|-------|
-----------------------|----------------------|-------|-------|
-----------------------|----------------------|-------|-------|
-----------------------|----------------------|-------|-------|


  Q     Q.      Q.         Q     Q.      Q.         H         H           Q     
-----------------------|----------------13------|----------------------|-------|
-------12------13------|--14----15--------------|--13--------12--------|--L----|
-------12--------------|------------------------|----------------------|-------|
-----------------------|------------------------|----------------------|-------|
-----------------------|------------------------|----------------------|-------|
-----------------------|------------------------|----------------------|-------|


   Q    E  Q    Q    E     E  Q    E  Q     E  E      Q    E  Q    Q    E   
------------------------|-------------------------|------------------------|
--------9-------9-------|-----9------------11--9--|--------9-------9-------|
--10-------9---------8--|----------7--7-----------|--10-------9---------8--|
------------------------|-------------------------|------------------------|
------------------------|-------------------------|------------------------|
------------------------|-------------------------|------------------------|


  E  Q    E  Q     E  E      Q    E  Q    Q    E     E  Q    E  Q     E  E   
-------------------------|------------------------|-------------------------|
-----9------------11--9--|--------9-------9-------|-----9------------11--9--|
----------7--7-----------|--10-------9---------8--|----------7--7-----------|
-------------------------|------------------------|-------------------------|
-------------------------|------------------------|-------------------------|
-------------------------|------------------------|-------------------------|


   Q    E  Q    Q    E     E  Q    E  H                                 
------------------------|----------------------|-----------|-----------|
--------9-------9-------|-----9----------------|-----------|-----------|
--10-------9---------8--|----------7--7--------|-----------|-----------|
------------------------|----------------------|-----------|-----------|
------------------------|----------------------|-----------|-----------|
------------------------|----------------------|-----------|-----------|


              Q    E  Q    Q    E     E  Q    E  Q    E  E   
-----------|-----------------------|------------------------|
-----------|-------7-------7-------|-----7------------9--7--|
-----------|--8-------7---------6--|----------5--5----------|
-----------|-----------------------|------------------------|
-----------|-----------------------|------------------------|
-----------|-----------------------|------------------------|


  Q    E  Q    Q    E     E  Q    E  Q    E  E     Q    E  Q    Q    E   
-----------------------|------------------------|-----------------------|
-------7-------7-------|-----7------------9--7--|-------7-------7-------|
--8-------7---------6--|----------5--5----------|--8-------7---------6--|
-----------------------|------------------------|-----------------------|
-----------------------|------------------------|-----------------------|
-----------------------|------------------------|-----------------------|


  E  Q    E  Q    E  E     W                   W                  
------------------------|-------------------|-------------------||
-----7------------9--7--|-------------------|-------------------||
----------5--5----------|--8----------------|--L----------------||
------------------------|-------------------|-------------------||
------------------------|-------------------|-------------------||
------------------------|-------------------|-------------------||










Vibraphone



E||-------------------|-------|-------|-------|-------|-------|-------|
B||-------------------|-------|-------|-------|-------|-------|-------|
G||-------------------|-------|-------|-------|-------|-------|-------|
D||-------------------|-------|-------|-------|-------|-------|-------|
A||-------------------|-------|-------|-------|-------|-------|-------|
E||-------------------|-------|-------|-------|-------|-------|-------|


  E   S  S  S  S  S  S  S  S  E   E   E      W                 
-----------------------------------------|--------------------|
-----------------------------------------|--------------------|
-----15-16-15-13-15-16-15-13-----15--13--|---L----------------|
-----------------------------12----------|--12----------------|
-----------------------------------------|--------------------|
-----------------------------------------|--------------------|


  W                                   Q     Q.      Q.      
-------------------|-------|-------|-----------------------|
--L----------------|-------|-------|-----------------------|
--L----------------|-------|-------|-----------------------|
-------------------|-------|-------|---------------12------|
-------------------|-------|-------|-------14--------------|
-------------------|-------|-------|-----------------------|


   Q     Q.     E  Q                               Q     H        Q             
------------------------|-------|-------|-------|----------------------|-------|
------------------------|-------|-------|-------|----------------------|-------|
--12----12--------------|-------|-------|-------|-------12-------------|-------|
------------------------|-------|-------|-------|----------------------|-------|
------------------------|-------|-------|-------|----------------------|-------|
------------------------|-------|-------|-------|----------------------|-------|


                   W                   H            H         
-------|-------|--------------------|------------------------|
-------|-------|--------------------|------------------------|
-------|-------|--15----------------|--L--------13g15--------|
-------|-------|--------------------|------------------------|
-------|-------|--------------------|------------------------|
-------|-------|--------------------|------------------------|


   W                   H.            E   E      W                 
--------------------|-----------------------|--------------------|
--------------------|-----------------------|--------------------|
--13----------------|--L--------------------|--13----------------|
--------------------|---------------13--15--|--------------------|
--------------------|-----------------------|--------------------|
--------------------|-----------------------|--------------------|


  H.               E   E      W                                 
--------------------------|--------------------|-------|-------|
---------------11g13------|--------------------|-------|-------|
--L-------------------13--|--15----------------|-------|-------|
--------------------------|--------------------|-------|-------|
--------------------------|--------------------|-------|-------|
--------------------------|--------------------|-------|-------|


  H        Q    E  E      E  E                           
----------------------|---------|-------|-------|-------|
-------------------9--|--11--7--|-------|-------|-------|
----------------------|---------|-------|-------|-------|
----------------------|---------|-------|-------|-------|
----------------------|---------|-------|-------|-------|
----------------------|---------|-------|-------|-------|


  H        E  E  E  E                                    
-----------------------|-------|-------|-------|-------||
--------------7--9--7--|-------|-------|-------|-------||
-----------------------|-------|-------|-------|-------||
-----------------------|-------|-------|-------|-------||
-----------------------|-------|-------|-------|-------||
-----------------------|-------|-------|-------|-------||










Clarinet



E||---------|-------|-------|-------|-------|-------|-------|-------|-------|
B||---------|-------|-------|-------|-------|-------|-------|-------|-------|
G||---------|-------|-------|-------|-------|-------|-------|-------|-------|
D||---------|-------|-------|-------|-------|-------|-------|-------|-------|
A||---------|-------|-------|-------|-------|-------|-------|-------|-------|
E||---------|-------|-------|-------|-------|-------|-------|-------|-------|


  H        Q    E  E     E  E  E  E  H           E  E  Q.     E  Q     
----------------------|-----------------------|-----------------------|
----------------------|--------1--4--3--------|-----3--1--------------|
-------------------1--|--3--4-----------------|--3------------3--1----|
----------------3-----|-----------------------|-----------------------|
----------------------|-----------------------|-----------------------|
----------------------|-----------------------|-----------------------|


  E  E  Q.     Q    E                                                         
-----------------------|-----|-----|-----|-----|-----|-----|-----|-----|-----|
-----------------------|-----|-----|-----|-----|-----|-----|-----|-----|-----|
--L--3--0--------------|-----|-----|-----|-----|-----|-----|-----|-----|-----|
-----------------------|-----|-----|-----|-----|-----|-----|-----|-----|-----|
-----------------------|-----|-----|-----|-----|-----|-----|-----|-----|-----|
-----------------------|-----|-----|-----|-----|-----|-----|-----|-----|-----|


                                            Q    E  Q    E  E  E   
-----|-----|-----|-----|-----|-----|-----|------------------------|
-----|-----|-----|-----|-----|-----|-----|------------------------|
-----|-----|-----|-----|-----|-----|-----|------------------1--3--|
-----|-----|-----|-----|-----|-----|-----|--1-------3-------------|
-----|-----|-----|-----|-----|-----|-----|------------------------|
-----|-----|-----|-----|-----|-----|-----|------------------------|


  E  Q    E  Q    Q                                                           
-----------------------|-----------|-----|-----|-----|-----|-----|-----|-----|
-----1-----------------|-----------|-----|-----|-----|-----|-----|-----|-----|
----------1--3---------|-----------|-----|-----|-----|-----|-----|-----|-----|
------------------3----|-----------|-----|-----|-----|-----|-----|-----|-----|
-----------------------|-----------|-----|-----|-----|-----|-----|-----|-----|
-----------------------|-----------|-----|-----|-----|-----|-----|-----|-----|


-----||
-----||
-----||
-----||
-----||
-----||










Pizzicato Strings



E||-------|-------|-------|-------|-------|-------|-------|-------|-------|
B||-------|-------|-------|-------|-------|-------|-------|-------|-------|
G||-------|-------|-------|-------|-------|-------|-------|-------|-------|
D||-------|-------|-------|-------|-------|-------|-------|-------|-------|
A||-------|-------|-------|-------|-------|-------|-------|-------|-------|
E||-------|-------|-------|-------|-------|-------|-------|-------|-------|


                                  Q     Q    Q     Q     
-------|-------|-------|-------|------------------------|
-------|-------|-------|-------|------------------------|
-------|-------|-------|-------|------------------------|
-------|-------|-------|-------|-------------8----------|
-------|-------|-------|-------|-------10---------10----|
-------|-------|-------|-------|------------------------|


  Q     Q    Q     Q       Q     Q    Q    Q       Q    H        Q     
------------------------|-----------------------|---------------------|
------------------------|-----------------------|---------------------|
------------------------|-----------------------|---------------------|
--8---------------------|--8----------8----9----|--8------------------|
-------10---------10----|-------10--------------|---------------------|
------------------------|-----------------------|---------------------|


   Q     Q    Q     Q       Q     Q    Q     Q       Q     Q    Q    Q     
-------------------------|------------------------|-----------------------|
-------------------------|------------------------|-----------------------|
-------------------------|------------------------|-----------------------|
--------------8----------|-------------8----------|--8----------8----9----|
--10----10---------10----|-------10---------10----|-------10--------------|
-------------------------|------------------------|-----------------------|


-------|-------|-------|-------|-------|-------|-------|-------|-------|-------|
-------|-------|-------|-------|-------|-------|-------|-------|-------|-------|
-------|-------|-------|-------|-------|-------|-------|-------|-------|-------|
-------|-------|-------|-------|-------|-------|-------|-------|-------|-------|
-------|-------|-------|-------|-------|-------|-------|-------|-------|-------|
-------|-------|-------|-------|-------|-------|-------|-------|-------|-------|


  H        Q    E  E      E  E                           
----------------------|---------|-------|-------|-------|
-------------------9--|--11--7--|-------|-------|-------|
----------------------|---------|-------|-------|-------|
----------------------|---------|-------|-------|-------|
----------------------|---------|-------|-------|-------|
----------------------|---------|-------|-------|-------|


  H        E  E  E  E                                    
-----------------------|-------|-------|-------|-------||
--------------7--9--7--|-------|-------|-------|-------||
-----------------------|-------|-------|-------|-------||
-----------------------|-------|-------|-------|-------||
-----------------------|-------|-------|-------|-------||
-----------------------|-------|-------|-------|-------||










Strings



E||-------|-------|-------|-------|-------|-------|-------|-------|-------|
B||-------|-------|-------|-------|-------|-------|-------|-------|-------|
G||-------|-------|-------|-------|-------|-------|-------|-------|-------|
D||-------|-------|-------|-------|-------|-------|-------|-------|-------|
A||-------|-------|-------|-------|-------|-------|-------|-------|-------|
E||-------|-------|-------|-------|-------|-------|-------|-------|-------|


                          Q    H.              W                 
-------|-------|-------|--------------------|-------------------|
-------|-------|-------|-------3------------|--L----------------|
-------|-------|-------|--------------------|-------------------|
-------|-------|-------|--------------------|-------------------|
-------|-------|-------|--------------------|-------------------|
-------|-------|-------|--------------------|-------------------|


  Q    H.              W                   Q    H.            
-------3------------|--L----------------|--L-----------------|
--L-----------------|-------------------|-------3------------|
--------------------|-------------------|--------------------|
--------------------|-------------------|--------------------|
--------------------|-------------------|--------------------|
--------------------|-------------------|--------------------|


  W                   W                   W                                     
-------------------|-------------------|-------------------|-------------------|
--L----------------|--L----------------|--L----------------|-------------------|
-------------------|-------------------|-------------------|-------------------|
-------------------|-------------------|-------------------|-------------------|
-------------------|-------------------|-------------------|-------------------|
-------------------|-------------------|-------------------|-------------------|


-------------------|-------------------|-------------------|-------------------|
-------------------|-------------------|-------------------|-------------------|
-------------------|-------------------|-------------------|-------------------|
-------------------|-------------------|-------------------|-------------------|
-------------------|-------------------|-------------------|-------------------|
-------------------|-------------------|-------------------|-------------------|


-------------------|-------------------|-------------------|-------------------|
-------------------|-------------------|-------------------|-------------------|
-------------------|-------------------|-------------------|-------------------|
-------------------|-------------------|-------------------|-------------------|
-------------------|-------------------|-------------------|-------------------|
-------------------|-------------------|-------------------|-------------------|


-------------------|-------------------|-------------------|-------------------|
-------------------|-------------------|-------------------|-------------------|
-------------------|-------------------|-------------------|-------------------|
-------------------|-------------------|-------------------|-------------------|
-------------------|-------------------|-------------------|-------------------|
-------------------|-------------------|-------------------|-------------------|


-------------------|-------------------|-------------------|-------------------|
-------------------|-------------------|-------------------|-------------------|
-------------------|-------------------|-------------------|-------------------|
-------------------|-------------------|-------------------|-------------------|
-------------------|-------------------|-------------------|-------------------|
-------------------|-------------------|-------------------|-------------------|


                      W                   W                  
-------------------|-------------------|-------------------||
-------------------|--2----------------|--L----------------||
-------------------|--1----------------|--L----------------||
-------------------|-------------------|-------------------||
-------------------|-------------------|-------------------||
-------------------|-------------------|-------------------||





Duration Legend
---------------
W - whole
H - half
Q - quarter
E - 8th
S - 16th
T - 32nd
X - 64th
. - note dotted
|-n-|  - n-tuplets
L = tied note





Comments


Popular Misc Television tabs & chords
Blackadder Theme 2 Bass Tabs
Seinfeld Theme 2 Bass Tabs
30 Rock - Kenneth Song Tabs
Coca Cola Theme Tabs
Dragon Ball Z Intro Tabs
Eastenders Theme 2 Tabs
Inspector Gadget Intro Tabs
Popeye The Sailor Man Tabs
Star Trek First Contact Tabs



Song lyrics



↑ Back to top | Tablatures and chords are parodies/interpretations of the original songs. You may use it for private study, scholarship, research or language learning purposes only
© 2014 AZChords.com Contact us | Privacy policy | DMCA | Add/correct tabs | Request tabs | Top 50 tabs