» » »

Misc Television, Monday Night Football Tabs (ver.1)

Artists:  A B C D E F G H I J K L M N O P Q R S T U V W X Y Z # 

Monday Night Football Tabs (ver.1)

Misc Television Tabs
Rating:
0/5 (0 votes)
Monday Night Football lessons Tabs too difficult? Try these video lessons and learn fast
                (Theme)
This is my first time tabbing, so I hope I didn't mess it up.

It's not the full song, but close to it.  Some of the chords are probably a bit
but I think it sounds pretty good like this.

The weird part in the middle with what almost feels like jazz chords is not as hard as
looks.  It's essentially the main drag of the song played on the bass notes (C, Eb, F, F)
a walk straight up every step on the high notes starting on the 12th fret.  It's 
to simulate that string instrumentation in the background during the walk-up.  I think
walk up goes on even longer in the real song, so if you want, just keep on going higher 
another couple bars.


-Kevin


|-----------------|----------------------|------------------|-----------------|
|-----------------|----------------------|------------------|-----------------|
|--12-10-9--------|----------------------|--12-10-9----12~--|-----------------|
|----------10-----|--10-10---3-3---------|----------10------|--10-10----10-10-|
|-----------------|--10-10---3-3---------|------------------|--10-10----10-10-|
|-----------------|--8--8----1-1---------|------------------|--8--8-----8--8--|

|---------------------|-----------------|-----------------------------|
|---------------10----|-----------------|-----------------------------|
|-------10-9-------12-|--12-12-12-7-7---|-----------------------------|
|--8-12------10-------|-------------6---|--5-5-5-5-5-5-5-5------------|
|---------------------|-----------------|--5-5-5-5-5-5-5-5------3---3-|
|---------------------|--11-9--7--5-4---|--3-3-3-3-3-3-3-3--3-5---5---|

|---------------------|-------------------|---------------------|
|---------------------|-------------------|---------------------|
|--------3-3---5-5----|-------------------|--------3-3---5-5----|
|--5-5---1-1---3-3----|-------------------|--5-5---1-1---3-3----|
|--3-3----------------|-------------------|--3-3----------------|
|---------------------|-------------------|---------------------|

|------------------------------------------------9------10-----|
|------------------10-----11-----12-----13---------------------|
|--12-----13---------------------------------------------------|
|--------------------------------------------------------------|
|------------------8--8x8-8--8x8-----------------8--8x8-8--8x8-|
|--8-8x8--11-11x11---------------8--8x8-11-11x11---------------|

|--------------------|-----------------|----------------|----------------|
|--------------------|-----------------|----------------|----------------|
|--12-10-9-----------|-----------------|--12-10-9----12-|----------------|
|----------8-10-10~--|-----------------|----------10----|----------------|
|--------------------|--10-10---3-3----|----------------|--10-10---10-10-|
|--------------------|--8--8----1-1----|----------------|--8--8----8--8--|

|---------------------|-----------------|------------------|-----------------|
|---------------10----|-----------------|------------------|--------13----13-|
|-------10-9-------12-|--12-12-12-7-7---|------------------|--12-14----14----|
|--8-12------10-------|-------------6---|------------------|-----------------|
|---------------------|-----------------|--5-5-5-5-5-5-5-5-|-----------------|
|---------------------|--11-9--7--5-4---|--3-3-3-3-3-3-3-3-|-----------------|
            
Submit corrections

comments powered by Disqus
↑ Back to top | Misc Television Tabs for Monday Night Football. Lyrics for acoustic guitar and electric guitar. Tablatures and chords are parodies/interpretations of the original songs. You may use it for private study, scholarship, research or language learning purposes only