» » »

Mi Tabs (ver.1)

Artists:  A B C D E F G H I J K L M N O P Q R S T U V W X Y Z # 

Mi Tabs (ver.1)

Misc Television
Rating:
0/5 (0 votes)

Tabs too difficult? Try these video lessons and learn fast.
                (Theme)
A TRIBUTE TO THE WORLDS GREATEST BASSPLAYER EVER: CLIFF BURTON - METALLICA, MAY HIS SOLE 
REST IN PEACE:

Mission Impossible Theme
OBSERVE: The third guitar should rather be an electric/steel stringed guitar, but it 
does´nt have to be.
So now here is my special arranged "Mission Impossible"- theme for two or three  guitars:

Intro: e-77777777777/12--------------------- (Real Fast)



Guitar 1:
e------------------------------------------------
H------------------------------------------------
G------------------------------------------------
D------------------------------------------------
A-0-0--3-5-0-0------0-0--3-5-0-0------------------
E---------------0-3--------------0-3--------------

Guitar 2b:              |S p e c i a l P a r t |!!!!!!!!!!!!!!!!!!!!!!!!!!!!!
e-9-7-5---9-7-4---7-5-2--0-2-2--5-7-2-2----0-2-2- !Keep on playin' the special!  
H----------------------------------------2------- !part a couple of times then!
G------------------------------------------------ !fade out                   !
D------------------------------------------------ !!!!!!!!!!!!!!!!!!!!!!!!!!!!!
A------------------------------------------------
E------------------------------------------------

e------------------------------------------------
H------------------------------------------------
G------------------------------------------------
D------------------------------------------------
A-0-0--3-5-0-0-----0-0--3-5-0-0------------------
E--------------0-3--------------0-3--------------

Guitar 3 (If available)
e------------------------------------------------
H------------------------------------------------
G------------------------------------------------
D-0-0--3-5-0-0-----0-0--3-5-0-0------------------
A-0-0--3-5-0-0-0-3-0-0--3-5-0-0-0-3--------------
E--------------0-3--------------0-3--------------

**************************************************************
*If you got anything ya' wanna' say to me * "Tied to machines**************
*just mail me:                            *  that make me be" - Metallica *
*And don´t forget folks: Metallica is still the best!!!!!!!!!!!!!!!!!!!!!!*
***************************************************************************
            
Tabs too difficult? Try these video lessons and learn fast.


comments powered by Disqus
↑ Back to top | Tablatures and chords are parodies/interpretations of the original songs. You may use it for private study, scholarship, research or language learning purposes only