» » »

Misc Television, Mash Tabs (ver.1)

Artists:  A B C D E F G H I J K L M N O P Q R S T U V W X Y Z # 

Mash Tabs (ver.1)

Misc Television Tabs
 Rating:
4/5 (4 votes)
Mash lessons Tabs too difficult? Try these video lessons and learn fast
                M*A*S*H*

			 Tabbed and posted by Matthew Fogle
					May 9, 1998


I think this melody sounds better with distortion kicked in, especially
when it gets to the higher notes.


  / = Slide up
  > = Hammer On

		 Brass Instruments tabbed as guitar

E-|----------------------------------|-------------------------
B-|---------3--2--------------3--2---|-------------------------
G-|----------------------------------|-2--0-----0-----0--------
D-|------3-----------3-----3---------|-------4-----4-----4-2---
A-|---2-----------------2------------|-------------------------
E-|----------------------------------|-------------------------


E-|------------------------------------------------------------
B-|------------------------------------------------------------
G-|------------------------------------------------------------
D-|--2-4-2-4--2--4--2--0-----4--2--0--2--0--2-0-----------0----
A-|----------------------------------------------4-----4-----4-
E-|------------------------------------------------------------


E-|------------------------------------------------------------
B-|------------------------------------------------------------
G-|---------------------11----11>13--11>13--11>13--11----------
D-|--0----0--2--4-/-11-----------------------------------------
A-|-----4------------------------------------------------------
E-|------------------------------------------------------------


E-|------------------------------------------------------------
B-|---------------------------------------------12--14--12-----
G-|--11->-13--11>13--11>13--11---11--8--11--13--------------13-
D-|------------------------------------------------------------
A-|------------------------------------------------------------
E-|------------------------------------------------------------


E-|----------------------------------------11--14-15-16--------
B-|----------------------------12--14--12----------------------
G-|--11--13-----11--8--11--13----------------------------------
D-|------------------------------------------------------2-----
A-|------------------------------------------------------2-----
E-|------------------------------------------------------0-----



I'm looking for "Two Heads are Better than One" by Power Tools.
If you have it, send it to OLGA or to
            
Submit corrections

comments powered by Disqus
↑ Back to top | Misc Television Tabs for Mash. Lyrics for acoustic guitar and electric guitar. Tablatures and chords are parodies/interpretations of the original songs. You may use it for private study, scholarship, research or language learning purposes only