» » »

Malcolm In The Middle Tabs (ver.1)

Artists:  A B C D E F G H I J K L M N O P Q R S T U V W X Y Z # 

Malcolm In The Middle Tabs (ver.1)

Misc Television
Rating:
0/5 (0 votes)

Hard to play? Try these video lessons and learn fast.
                (Theme)
This goes out to FenderBoy300 for no reason at all.
This song is actually called 'Boss of Me' by 'They Might Be Giants' but I don't care so 
anyone posts a comment saying its called that I am going to have a good long laugh 
its right here in the description. Ha.
I didn't bother much with the timings and I refuse to tab notes right beside each other 
|-0-9-075-0|)

e|-----8---8---8---8---10--10--10--10---3---3---3---3---8---8------------------|
B|-----8---8---8---8---10--10--10--10---3---3---3---3---8---8------------------|
G|-----9---9---9---9---11--11--11--11---4---4---4---4---9---9--9-9-9-9-9-9-9-9-|
D|-----10--10--10--10--12--12--12--12---5---5---5---5---10--10-x-x-x-x-x-x-x-x-|
A|-------------------------------------------------------------7-7-7-7-7-7-7-7-|
E|-----------------------------------------------------------------------------|

   G       A       C       C
e|---------------------------------|
B|---------------------------------|
G|---------2-(x16)-5-(x16)-5-(x16)-|
D|-5-(x16)-2-(x16)-5-(x16)-5-(x16)-|
A|-5-(x16)-0-(x16)-3-(x16)-3-(x16)-|
E|-3-(x16)-------------------------|

This part is played on a keyboard I think but you can play it like this:

e|---------|     e|-----------------|
B|---------|     B|-----------------|
G|---0-2-4-|     G|---0-2-5---4---2-|
D|-2-------|     D|-2---------------|
A|---------|     A|-----------------|
E|---------|x2   E|-----------------|

Wow, a ten minute tab. Never thought I'd see the day...
            
Hard to play? Try these video lessons and learn fast. | Correct




comments powered by Disqus
↑ Back to top | Tablatures and chords are parodies/interpretations of the original songs. You may use it for private study, scholarship, research or language learning purposes only