» » »

Misc Television, Mac Gvyer Tabs (ver.1)

Artists:  A B C D E F G H I J K L M N O P Q R S T U V W X Y Z # 

Mac Gvyer Tabs (ver.1)

Misc Television Tabs
 Rating:
4/5 (4 votes)
Mac Gvyer lessons Tabs too difficult? Try these video lessons and learn fast
1
                (Theme)

MACGYVER THEME

It might seem kind of stupid to take the trouble of finding this, but if you play it with a good right-hand rhythm, it can be fun.That's why I added some "xxx" stops, but it's only a suggestion. Try playing this with a recording of the original theme (easy to find as midi files on the net), and you'll see what I mean.

Enjoy!
                  
E |--------------7-----------------|--------------7-----------------|
B |----------10------10------------|----------10------10------------|
G |------9-------------------9-----|------9---------------9-------9-|
D |--9---------------------------9-|--------------------------9-----|
A |--------------------------------|--------------------------------|
E |--0-----------------------------|--------------------------------|

E |--------------7-----------------|----------10--8---10--8---7-----|
B |----------10------10------------|------10----------------------10|
G |------9-------------------9-----|--------------------------------|
D |--------------------------------|----------0---------------------|
A |--------------------------------|--------------------------------|
E |--8---------------------------8-|--------------------------------|

E |--------------7-----------------|--------------7-----------------|
B |----------10------10------------|----------10------10------------|
G |------9-------------------9-----|------9---------------9-------9-|
D |--9----------------------------9|--------------------------9-----|
A |--------------------------------|--------------------------------|
E |--0-----------------------------|--------------------------------|

E |--------------7-----------------|----------10--8---10--8---7-----|
B |----------10------10------------|------10----------------------10|
G |------9-------------------9-----|--------------------------------|
D |--------------------------------|----------0---------------------|
A |--------------------------------|--------------------------------|
E |--8---------------------------8-|--------------------------------|

E |--7-------x---7-----------x-----|--7-------x---7----------10-----|
B |--8-------x---7-----------x-----|--7-------x---7----------10-----|
G |--7-------x---7-----------x-----|--9-------x---8-----------7-----|
D |--9-------x---9-----------x-----|--7-------x---7-----------7-----|
A |-10-------x--10-----------x-----|-10-------x--10-----------------|
E |--------------------------x-----|----------x---------------------|

E |--7-------x---7-----------x-----|--7-------x---5-----------------|
B |--8-------x---7-----------x-----|--8-------x---7-----------------|
G |--7-------x---7-----------x-----|--9-------x---7-----------------|
D |--9-------x---9-----------x-----|--9-------x---7-----------------|
A |-10-------x--10-----------x-----|--7-------x---5-----------------|
E |--------------------------x-----|----------x---------------------|

                                                       
E |--------------------------------|----------x---------------x-----|
B |--1---1---1---1---1---1---1---1-|--0-------x-----------0---x---0-|
G |--2---2---2---2---2---2---2---2-|--0-------x-----------2---x---0-|
D |--------------------------------|--0-------x-------4---0---x---0-|
A |--------------------------------|----------x---------------x-----|
E |--------------------------------|--3-------x-------3-------x---3-|

E |----------x---------------x-----|--------------------------0-----|
B |----------x-------1---1---x---0-|------1---0---------------0-----|
G |----------x-------2---2---x---0-|-------------2----0-------------|
D |----------x-------0---0---x---0-|------------------2-------------|
A |----------x---------------x-----|------------------2-------------|
E |----------x-------3-------x---3-|------------------0-------------|





E |------------------------------x-|---------x----------------x-----|
B |--1-------------------1---1---x-|--0------x------------0---x---0-|
G |--2-------------------2---2---x-|--0------x------------2---x---0-|
D |--2---------------------------x-|--0------x--------4---0---x---0-|
A |--0---------------------------x-|---------x----------------x-----|
E |------------------------------x-|--3------x--------3-------x---3-|

E |----------x---------------x-----|--------------------------0-----|
B |----------x-------1---1---x---0-|------1--0----------------0-----|
G |----------x-------2---2---x---0-|-------------2----0-------------|
D |----------x-------0---0---x---0-|------------------2-------------|
A |----------x---------------x-----|------------------2-------------|
E |----------x-------3-------x---3-|------------------0-------------|


E |--------------------------------|--------------------------------|
B |--1---------------0-------------|--1---0------1--------0-------3-|
G |--2---------------1-------------|--2------2---0------------2---0-|
D |--2---------------2-------------|--2----------0----------------0-|
A |--0---------------2-------------|--0-----------------------------|
E |------------------0-------------|-------------2----------------3-|

E |------------------------------0-|------0--2----------------------|
B |------1---0---3-------1---0---1-|--3------2--------0-------8-----|
G |--------------0---------------0-|---------3----------------9-----|
D |--------------0---------------2-|---------4----------------9-----|
A |------------------------------3-|---------4----------------7-----|
E |--------------3-----------------|---------2----------------------|

E |--------------------------------|--3------2--------0-------------|
B |------7-------6-----------------|-----5-------3------1-----3-0---|
G |------8-------7-------4---------|-------5-------2------0-------0-|
D |------8-------7-----------------|--------------------------------|
A |------6-------5-----------------|--3------2--------0-------------|
E |----------------------3---------|--------------------------3-----|

E |--------------------------------|-----------|
B |--1-------0-------1---0---------|--4------3-|
G |------0-------0-----------2---0-|--3------2-|
D |--------------------------------|-----------|
A |--3-------2-------3-------------|--1------0-|
E |--------------------------------|-----------|

                                                      
E |--------------------------------|----------x---------------x-----|
B |--1---1---1---1---1---1---1---1-|--0-------x-----------0---x---0-|
G |--2---2---2---2---2---2---2---2-|--0-------x-----------2---x---0-|
D |--------------------------------|--0-------x-------4---0---x---0-|
A |--------------------------------|----------x---------------x-----|
E |--------------------------------|--3-------x-------3-------x---3-|

E |----------x---------------x-----|--------------------------0-----|
B |----------x-------1---1---x---0-|------1---0---------------0-----|
G |----------x-------2---2---x---0-|-------------2----0-------------|
D |----------x-------0---0---x---0-|------------------2-------------|
A |----------x---------------x-----|------------------2-------------|
E |----------x-------3-------x---3-|------------------0-------------|





E |------------------------------x-|---------x----------------x-----|
B |--1-------------------1---1---x-|--0------x------------0---x---0-|
G |--2-------------------2---2---x-|--0------x------------2---x---0-|
D |--2---------------------------x-|--0------x--------4---0---x---0-|
A |--0---------------------------x-|---------x----------------x-----|
E |------------------------------x-|--3------x--------3-------x---3-|

E |----------x---------------x-----|--------------------------0-----|
B |----------x-------1---1---x---0-|------1--0----------------0-----|
G |----------x-------2---2---x---0-|-------------2----0-------------|
D |----------x-------0---0---x---0-|------------------2-------------|
A |----------x---------------x-----|------------------2-------------|
E |----------x-------3-------x---3-|------------------0-------------|


E |--------------------------------|--------------------------------|
B |--1---------------0-------------|--1---0------1--------0-------3-|
G |--2---------------1-------------|--2------2---0------------2---0-|
D |--2---------------2-------------|--2----------0----------------0-|
A |--0---------------2-------------|--0-----------------------------|
E |------------------0-------------|-------------2----------------3-|

E |------------------------------0-|------0--2----------------------|
B |------1---0---3-------1---0---1-|--3------2--------0-------8-----|
G |--------------0---------------0-|---------3----------------9-----|
D |--------------0---------------2-|---------4----------------9-----|
A |------------------------------3-|---------4----------------7-----|
E |--------------3-----------------|---------2----------------------|

E |--------------------------------|--3------2--------0-------------|
B |------7-------6-----------------|-----5-------3------1-----3-0---|
G |------8-------7-------4---------|-------5-------2------0-------0-|
D |------8-------7-----------------|--------------------------------|
A |------6-------5-----------------|--3------2--------0-------------|
E |----------------------3---------|--------------------------3-----|

E |--------------------------------|-----------|
B |--1-------0-------1---0---------|--4------3-|
G |------0-------0-----------2---0-|--3------2-|
D |--------------------------------|-----------|
A |--3-------2-------3-------------|--1------0-|
E |--------------------------------|-----------|

E |--3-----------------------------|--------------------------------|
B |---------3--------4-------------|--------------------------------|
G |--------------------------3---2-|--0-----------------------------|
D |------5------5--------5---------|--------------------------------|
A |--------------------------------|---------5--------6-------------|
E |--3-----------------------------|-----3-------3--------3---6---5-|

E |--------------------------------|-----------------------------------|
B |--------------------------------|-----------------------------------|
G |--------------------------------|-----------------------------------|
D |--------------------------------|-----------------------------------|
A |--------------------------------|-----------------------------------|
E |--3---3---3---3---3---3---3---3-|-----------------------------------|
            
Submit corrections

comments powered by Disqus
↑ Back to top | Misc Television Tabs for Mac Gvyer. Lyrics for acoustic guitar and electric guitar. 1 Tablatures and chords are parodies/interpretations of the original songs. You may use it for private study, scholarship, research or language learning purposes only