» » »

Littlest Hobo Bass tabs (ver.1)

Artists:  A B C D E F G H I J K L M N O P Q R S T U V W X Y Z # 

Littlest Hobo Bass tabs (ver.1)

Misc Television
Rating:
0/5 (0 votes)

Hard to play? Try these video lessons and learn fast.
                (Theme)
[INTRO]
  F        F        F        F        
G:--------|--------|--------|--------|
D:33--33--|33--33--|33--33--|33--33--|
A:--3---3-|--3---3-|--3---3-|--3---3-|
E:--------|--------|--------|--------|

[VERSE]
            Dm                                        C
  There's a voice               That keeps on calling me
           Dm                                         C
  Down the road              That's where I'll always be
        F                                             Bb
  Every stop I make                      I make a new friend
                 Gm               C                   F
  Can't stay for long, just turn around and I'm gone again

  Dm       C        Dm       C        F        Bb       Gm  C    F
G:--------|--0---0-|--------|--0---0-|--------|33--33--|--------|--------|
D:000-000-|--------|00--00--|--------|33--33-3|--3---3-|--------|33------|
A:--------|33--33--|--0---0-|33--33-3|--3---3-|-------3|---5333-|--33----|
E:--------|--------|--------|--------|--------|--------|333-----|----1---|

[CHORUS]
          Gm           Bb             F    Am7  Dm   C
  Maybe tomorrow, I'll want to settle down
          Bb           C                F     C
  Until tomorrow, I'll just keep movin' on

  Gm  Bb   F        Bb  C    F   C
G:--------|--------|--------|--------|
D:--------|3-2-0---|--------|333-----|
A:----111-|------3-|111-333-|----333-|
E:333-----|--------|--------|--------|

[VERSE]
            Dm                                      C
  Down this road                That never seems to end
             Dm                                     C
  When new adventure           Lies just around the bend
            F                                       Bb
  So if you want to join me                   For a while
                 Gm               C                 F
  Just grab your hat, come travel light that's hobo-style

  Dm       C        Dm       C        F        Bb       Gm  C    F
G:--------|--0---0-|--------|--0---0-|--------|33--33--|--------|--------|
D:000-000-|--------|00--00--|--------|33--33-3|--3---3-|--------|33------|
A:--------|33--33--|--0---0-|33--33-3|--3---3-|-------3|---5333-|--33----|
E:--------|--------|--------|--------|--------|--------|333-----|----1---|

[CHORUS]
          Gm           Bb             F    Am7  Dm   C
  Maybe tomorrow, I'll want to settle down
          Bb          C                 F     C
  Until tomorrow, the whole world is my home

  Gm  Bb   F        Bb  C    F   C
G:--------|--------|--------|--------|
D:--------|3-2-0---|--------|333-----|
A:----111-|------3-|111-333-|----333-|
E:333-----|--------|--------|--------|

[VERSE]
            F                                       Bb
  So if you want to join me                   For a while
                 Gm               C                 F
  Just grab your hat, come travel light that's hobo-style

  F        Bb       Gm  C    F
G:--------|33--33--|--------|--------|
D:33--33-3|--3---3-|--------|33--33--|
A:--3---3-|-------3|---5333-|--3---3-|
E:--------|--------|333-----|--------|

[CHORUS]
          Gm           Bb             F    Am7  Dm   C
  Maybe tomorrow, I'll want to settle down
          Bb           C                F     C
  Until tomorrow, I'll just keep movin' on

  Gm  Bb   F        Bb  C    F   C
G:--------|--------|--------|--------|
D:--------|3-2-0---|--------|333-----|
A:----111-|------3-|111-333-|----333-|
E:333-----|--------|--------|--------|

[INSTRUMENTAL]
  Dm       C        Dm       C        F        Bb       Gm  C    F
G:--------|--0---0-|--------|--0---0-|--------|33--33--|--------|--------|
D:000-000-|--------|00--00--|--------|33--33-3|--3---3-|--------|33------|
A:--------|33--33--|--0---0-|33--33-3|--3---3-|-------3|---5333-|--33----|
E:--------|--------|--------|--------|--------|--------|333-----|----1---|

[CHORUS]
          Gm           Bb             F    Am7  Dm   C
  Maybe tomorrow, I'll want to settle down
          Bb           C                F     C
  Until tomorrow, I'll just keep movin' on

  Gm  Bb   F        Bb  C    F   C
G:--------|--------|--------|--------|
D:--------|3-2-0---|--------|333-----|
A:----111-|------3-|111-333-|----333-|
E:333-----|--------|--------|--------|

[VERSE]
            Dm                                         C
  There's a world                  That's waiting to unfold
              Dm                                       C
  A brand new tale                     No one has ever told
                  F                                    Bb
  We've journeyed far         Bbut you know it won't be long
               Gm                   C                  F
  We're almost there we've paid our fare with our hobo song

  Dm       C        Dm       C        F        Bb       Gm  C    F
G:--------|--0---0-|--------|--0---0-|--------|33--33--|--------|--------|
D:000-000-|--------|00--00--|--------|33--33-3|--3---3-|--------|33------|
A:--------|33--33--|--0---0-|33--33-3|--3---3-|-------3|---5333-|--33----|
E:--------|--------|--------|--------|--------|--------|333-----|----1---|

[CHORUS]
          Gm           Bb             F    Am7  Dm   C
  Maybe tomorrow, I'll want to settle down
          Bb           C                F     C
  Until tomorrow, I'll just keep movin' on

  Gm  Bb   F        Bb  C    F   C
G:--------|--------|--------|--------|
D:--------|3-2-0---|--------|333-----|
A:----111-|------3-|111-333-|----333-|
E:333-----|--------|--------|--------|

[VERSE]
            F                                       Bb
  So if you want to join me                   For a while
                 Gm               C                 F
  Just grab your hat, come travel light that's hobo-style

  F        Bb       Gm  C    F
G:--------|33--33--|--------|--------|
D:33--33-3|--3---3-|--------|33--33--|
A:--3---3-|-------3|---5333-|--3---3-|
E:--------|--------|333-----|--------|

[CHORUS + CODA]
          Gm           Bb             F    Am7  Dm   C
  Maybe tomorrow, I'll find what I call home
          Bb          C                F     C     FMaj7
  Until tomorrow, you know I'm free to roam

  Gm  Bb   F        Bb  C    F     FMaj7
G:--------|--------|--------|--------|--------|
D:--------|3-2-0---|--------|33--3~~~~~~~~~~~~|
A:----111-|------3-|111-333-|--3-----|--------|
E:333-----|--------|--------|--------|--------|

March 28, 2011
            
Hard to play? Try these video lessons and learn fast. | Correct




comments powered by Disqus
↑ Back to top | Tablatures and chords are parodies/interpretations of the original songs. You may use it for private study, scholarship, research or language learning purposes only