» » »

Misc Television, Laurel And Hardy Tabs (ver.1)

Artists:  A B C D E F G H I J K L M N O P Q R S T U V W X Y Z # 

Laurel And Hardy Tabs (ver.1)

Misc Television Tabs
 Rating:
4/5 (4 votes)
Laurel And Hardy lessons Tabs too difficult? Try these video lessons and learn fast
1
                (Theme)
just a fun little riff, great to play when some one does something stupid or walks into the room.



||--x -x -x --||
||--12-15-12--||
||--12-x -12--||
||--12-x -x --||
||--x -x -x --||
||--x -x -x --||           X2

||--------------||--------------|
||--13-15-13----||--12-13-12----|
||-----------14-||-----------12-|
||--------------||--------------|
||--------------||--------------|
||--------------||--------------|

||--x -x -x --||
||--12-15-12--||
||--12-x -12--||
||--12-x -x --||
||--x -x -x --||
||--x -x -x --||           X2

||-----------------x --||
||--13-15-13----15-12--||
||-----------14----12--||
||-----------------12--||
||-----------------x --||
||-----------------x --||
            
Submit corrections

comments powered by Disqus
↑ Back to top | Misc Television Tabs for Laurel And Hardy. Lyrics for acoustic guitar and electric guitar. 1 Tablatures and chords are parodies/interpretations of the original songs. You may use it for private study, scholarship, research or language learning purposes only