» » »

Misc Television, King Of The Hill Tabs (ver.5)

Artists:  A B C D E F G H I J K L M N O P Q R S T U V W X Y Z # 

King Of The Hill Tabs (ver.5)

Misc Television Tabs
 Rating:
4/5 (4 votes)
King Of The Hill lessons Tabs too difficult? Try these video lessons and learn fast
1
                (Theme)
Here's the king of the Hill theme song and how I play it:
I don't know what you would consider a 'verse' or 'chorus' so it's all just 
categorized into sections: 


During this song, where there are dead notes, and on section 4 when there are the 
3 open high strings between chord changes; all of that basically means just change 
your chords sloppily, including some open strings sometimes :P


 

INTRO: 

       A      E
e|----0-0-----0-------------------------------------------------|
B|----2-2-----0-------------------------------------------------|
G|----2-2-----1-------------------------------------------------|
D|----2-2-----2-------------------------------------------------|
A|--0---------2-------------------------------------------------|
E|----------0---------------------------------------------------|



----------------------------------------------------------------------------------------------




SECTION 1:

e|--------------------------------------------------------------|
B|--------------------------------------------------------------|
G|--------------------------------------------------------------|
D|--2--2-2-2--2-2-2-2-2-2-2-2-2-2-2-----------------------------|
A|--2--2-2-2--2-2-2-2-2-2-2-2-2-2-2---7-7-7-7---11--9-----------|
E|--0--0-0-0--0-0^4^0-0-0-0-0-0-0-0---5-5-5-5---9---7-----------|




SECTION 2: 

e|--------------------------------------------------------------|
B|--------------------------------------------------------------|
G|--------------------------------------------------------------|
D|--2--2-2-2--2-2-2-2-2-2-2-2-2-2-2-----------------------------|
A|--2--2-2-2--2-2-2-2-2-2-2-2-2-2-2---7-x-6-x-4-x---6---4-------|
E|--0--0-0-0--0-0^4^0-0-0-0-0-0-0-0---5-0-4-0-2-0---4---2-------|



SECTION 3:

e|--------------------------------------------------------------|
B|--------------------------------------------------------------|
G|--------------------------------------------------------------|
D|--9--x---------------------------2--2-------------------------|
A|--7--x--11--x--9--7--6-6--7--6---2--2-------------------------|
E|-----0--9---0--7--5--4-4--5--4---0--0-------------------------|




SECTION 4:

    C#m            G#             A         B
e|--4--4--4--4--0--4--4--4--4--0--5-5-5--5--7-7-7-7-7-7-7-7-ect-|
B|--5--5--5--5--0--4--4--4--4--0--5-5-5--5--7-7-7-7-7-7-7-7-ect-|
G|--6--6--6--6--0--5--5--5--5--0--6-6-6--6--8-8-8-8-8-8-8-8-ect-|
D|--6--6--6--6-----6--6--6--6-----7-7-7--7--9-9-9-9-9-9-9-9-ect-|
A|--4--4--4--4-----6--6--6--6-----7-7-7--7--9-9-9-9-9-9-9-9-ect-|
E|-----------------4--4--4--4-----5-5-5--5--7-7-7-7-7-7-7-9-ect-|




Order:
Intro
Section 1
Section 2
Section 1
Section 3
Section 4
Section 1
Section 3



Hope this is accurately tabbed, and have fun :) 
            
Submit corrections

comments powered by Disqus
↑ Back to top | Misc Television Tabs for King Of The Hill. Lyrics for acoustic guitar and electric guitar. 1 Tablatures and chords are parodies/interpretations of the original songs. You may use it for private study, scholarship, research or language learning purposes only