» » »

Kids In The Hall Tabs (ver.1)

Artists:  A B C D E F G H I J K L M N O P Q R S T U V W X Y Z # 

Kids In The Hall Tabs (ver.1)

Misc Television
Rating:
0/5 (0 votes)

Hard to play? Try these video lessons and learn fast.
                "Kids in the Hall" theme


	[ Does anyone know anything about the band that does all the music
	  for KitH?  Do they have any albums?  -pat ]

intro

-------------------------
------------0-3-0---0----
-0---0------------2------ repeat several times
---0---0-2------------2--
-------------------------
-------------------------

riff 1.

 G            Em
-3--3---------0--0--
-3--3---------0--0--
-0--0-2-4-2-0-0--0--  4 times
-0--0---------2--2--
-2--2---------2--2--
-3--3---------0--0--


riff 2.

 D          Em
-2----------0-----------
-3----------0-----------
-2----------0-----------
-0---0------2-----------  3 times
---2---2-0--2-----------
------------0-2-3-5-----

riff 3.

------------------------------------
------------------------------------
------------------------------------
------------------------------------  4 times
--2-3-2-3-2-3-2----2-3-2-3-2-3-2----
----------------3----------------3--

end on a G.

--
"I have a cunning plan." -- Baldric
                                                             patrick m. ryan
     nasa / goddard space flight center / oceans and ice branch / hughes stx




-- 
+------------------------------------------------------------------------------+
|  Steve Portigal, Dep't of CIS, University of Guelph, Guelph, ON, N1G 2W1     |
|  	I need a remedy, you see, for what is ailing me....		       |
+------------------------------------------------------------------------------+
            
Hard to play? Try these video lessons and learn fast. | Correct




comments powered by Disqus
↑ Back to top | Tablatures and chords are parodies/interpretations of the original songs. You may use it for private study, scholarship, research or language learning purposes only