» » »

Misc Television, Joe 9 Bass tabs (ver.1)

Artists:  A B C D E F G H I J K L M N O P Q R S T U V W X Y Z # 

Joe 9 Bass tabs (ver.1)

Misc Television Tabs
Rating:
0/5 (0 votes)
Joe 9 lessons Tabs too difficult? Try these video lessons and learn fast
                "(0)
(Theme)
-------------------------------------------------------------------------------
                             JOE 90 THEME - Barry Gray
-------------------------------------------------------------------------------


Tuning: standard EADG

for Charlie (go get em kid)

G|---------------------------------------------------------------------------|
D|-5---3-5----3-5----3-5---3-5---3-5---3-5---3-5---3-5---3-5---3-5---3-5-----|
A|---5------5------5-----5-----5-----5-----5-----5-----5-----5-----5---------|
E|---------------------------------------------------------------------------|

G|---------------------------------------------5---3-5---3-5---3-5---3-5--3-5|
D|-555-3---3-6-555-3---3-6-5--3-5---3-5---3-5----5-----5-----5-----5-----5---|
A|-------5-----------5-------5----5-----5------------------------------------|
E|---------------------------------------------------------------------------|

G|-5---3-5---3-6-555-3---3-6-555-3---3-6-5---3-5--3-5---3-5------------------|
D|---5-----5-----------5-----------5-------5-----5----5----------------------|
A|---------------------------------------------------------------------------|
E|------------------------------------------------------------3-33-3--1-11-1-|

G|---------------------------------------------------------------------------|
D|---------------------------------------------------------------------------|
A|-1-11-1-1-11-1-3-33-3----------5-55-5-777----------------------------------|
E|-----------------------5-55-5----------------------------------------------|

The rest of it is just as above but repeated over & over with a little variation

and just for fun;   the main theme part played for bass (bass don't actually play this but hey):
G|---------------------------------------------------------------------------|
D|-17-15---------------17-17-17-17-17-17-17-15-17----15-18-17-17-17-15-------|
A|-------17--17-17-17-----------------------------17--------------------17---|
E|---------------------------------------------------------------------------|

G|---------------------------------------------------------17-15-------------|
D|-15-18-17-17-17-15-----------17-17-17-17-17-17-17-15-17--------17-17-17----|
A|-------------------17-17-17------------------------------------------------|
E|---------------------------------------------------------------------------|

G|-----17-17-17-17-17-17-17-15-17-----------17-17-17-15----15-18-17-17-17----|
D|-17-----------------------------17-17-17--------------17-------------------|
A|---------------------------------------------------------------------------|
E|---------------------------------------------------------------------------|

G|-17----15-18-17-17-17-15----15-18-17-17-17-17-17-17-17-15-17---------------|
D|----17-------------------17------------------------------------------------|
A|---------------------------------------------------------------------------|
E|---------------------------------------------------------------------------|
"            

comments powered by Disqus
↑ Back to top | Misc Television Bass for Joe 9. Lyrics for acoustic guitar and electric guitar. Tablatures and chords are parodies/interpretations of the original songs. You may use it for private study, scholarship, research or language learning purposes only