» » »

Misc Television, I Spy Tabs (ver.1)

Artists:  A B C D E F G H I J K L M N O P Q R S T U V W X Y Z # 

I Spy Tabs (ver.1)

Misc Television Tabs
 Rating:
4/5 (4 votes)
I Spy lessons Tabs too difficult? Try these video lessons and learn fast
1
                (Theme)
I Spy
By Earle Hagen

Opening chord (B7 flat5 add9 [no 3]):

e|-7-|
B|-6-|
G|-6-|
D|-7-|
A|---|
E|---|

RHYTHM RIFFS:

Am Riff:                      F Riff:

e|--------------------------| e|--------------------------|
B|--------------------------| B|--------------------------|
G|--------------------------| G|--------------------------|
D|--------------------------| D|--------------------------|
A|---------6-7----------8-7-| A|---------2-3----------5-4-|
E|-5-5-8-8------5-5-8-8-----| E|-1-1-4-4------1-1-4-4-----|

G Riff:          E Riff:

e|-------------| e|-------------|
B|-------------| B|-------------|
G|-------------| G|-------------|
D|-------------| D|-------------|
A|---------4-5-| A|---------1-2-|
E|-3-3-6-6-----| E|-0-0-3-3-----|

PART I:

   
   Am          F                          Am
   
e|-5----------------------------4---8-12-11--------------11-----------8-10~-|
B|---5--------6---------5---6-8---6---------12---/11--------12-----12-------|
G|--------------5---------5--------------------------12---------12----------|
D|--------------------------------------------------------------------------|
A|--------------------------------------------------------------------------|
E|--------------------------------------------------------------------------|

[GUNSHOTS!]

PART II (2x - can go up an octave, if you like):


   Am     F    Am    (1st)  G  E  (2nd)  G     Am
   
e|--5-----------5---|-------4----|-------4---4-5--|
B|----5---6-------5-|-----5------|-----5----------|
G|----------5-------|---5--------|---5------------|
D|------------------|-7----------|-7--------------|
A|------------------|------------|----------------|
E|------------------|------------|----------------|

For more tabs from secret agent films and TV:
            
Submit corrections

comments powered by Disqus
↑ Back to top | Misc Television Tabs for I Spy. Lyrics for acoustic guitar and electric guitar. 1 Tablatures and chords are parodies/interpretations of the original songs. You may use it for private study, scholarship, research or language learning purposes only