» » »

Misc Television, Intel Star Tv Ad Tabs (ver.2)

Artists:  A B C D E F G H I J K L M N O P Q R S T U V W X Y Z # 

Intel Star Tv Ad Tabs (ver.2)

Misc Television Tabs
Rating:
0/5 (0 votes)
Intel Star Tv Ad lessons Tabs too difficult? Try these video lessons and learn fast
                (Theme)
TUNING: Bottom-C G C F A D-Top
(STANDARD TUNING: Below)
^ = Harmonic

D--------------------------------------------------------|
A-----------------------------5h7~vib~~~-----------------|
F--------------------------------------------------------|
C---2--4----x----2--4----x-------------------------------|
G---2--4----x----2--4----x-------------------------------|
C---2--4----x----2--4----x-------------------------------|

D--------------------------------------------------------|
A--------------------------------------------------------|
F-----------------------------4^b6r4p2-------------------|
C---2--4----x----2--4----x-------------4-----------------|
G---2--4----x----2--4----x-------------------------------|
C---2--4----x----2--4----x-------------------------------|

D-----------------------------------2^-------------------|
A---------------------------------4-2^-------------------|
F---------------------------------4-2^-------------------|
C---2--4----x----2--4----x----2h4------------------------|
G---2--4----x----2--4----x-------------------------------|
C---2--4----x----2--4----x-------------------------------|

D--------------------------------------------------------|
A--------------------------------------------------------|
F--------------------------------------6p4p2-------------|
C---------4^---------3^---------2^-----------7p4p2-------|
G--------------------------------------------------------|
C---4--4-------4--4-------4--4---------------------------|

D--------------------------------------------------------|
A-----------------------------5h7~vib~~~-----------------|
F--------------------------------------------------------|
C---2--4----x----2--4----x-------------------------------|
G---2--4----x----2--4----x-------------------------------|
C---2--4----x----2--4----x-------------------------------|

D--------------------------------------------------------|
A--------------------------------------------------------|
F-----------------------------4^b6r4p2-------------------|
C---2--4----x----2--4----x-------------4-----------------|
G---2--4----x----2--4----x-------------------------------|
C---2--4----x----2--4----x-------------------------------|

D-----------------------------------2^-------------------|
A---------------------------------4-2^-------------------|
F---------------------------------4-2^-------------------|
C---2--4----x----2--4----x----2h4------------------------|
G---2--4----x----2--4----x-------------------------------|
C---2--4----x----2--4----x-------------------------------|

D--------------------------------------------------------|
A--------------------------------------------------------|
F--------------------------------------------------------|
C---2--4----x----2--4------------------------------------|
G---2--4----x----2--4------------------------------------|
C---2--4----x----2--4------------------------------------|

STANDARD TUNING

e--------------------------------------------------------|
a--------------------------------------------------------|
g-----------------------------7h9~vib~~~-----------------|
d---7--9----x----7--9----x-------------------------------|
a---5--7----x----5--7----x-------------------------------|
E-----------x------------x-------------------------------|

e--------------------------------------------------------|
b--------------------------------------------------------|
g-----------------------------2^b4r2p0-------------------|
d---7--9----x----7--9----x-------------2-----------------|
a---5--7----x----5--7----x-------------------------------|
E-----------x------------x-------------------------------|

e-----------------------------------0^-------------------|
b---------------------------------2-0^-------------------|
g---------------------------------2-0^-------------------|
d---7--9----x----7--9----x----0h2------------------------|
a---5--7----x----5--7----x-------------------------------|
E-----------x------------x-------------------------------|

e--------------------------------------------------------|
b--------------------------------------------------------|
g---------------------------------4p2p0------------------|
d---------------------------------------5p2p0------------|
a--------------------------------------------------------|
E---0--0--10^--0--0---9^--0-0--8^------------------------|


e--------------------------------------------------------|
a--------------------------------------------------------|
g-----------------------------7h9~vib~~~-----------------|
d---7--9----x----7--9----x-------------------------------|
a---5--7----x----5--7----x-------------------------------|
E-----------x------------x-------------------------------|

e--------------------------------------------------------|
b--------------------------------------------------------|
g-----------------------------2^b4r2p0-------------------|
d---7--9----x----7--9----x-------------2-----------------|
a---5--7----x----5--7----x-------------------------------|
E-----------x------------x-------------------------------|

e-----------------------------------0^-------------------|
b---------------------------------2-0^-------------------|
g---------------------------------2-0^-------------------|
d---7--9----x----7--9----x----0h2------------------------|
a---5--7----x----5--7----x-------------------------------|
E-----------x------------x-------------------------------|

e--------------------------------------------------------|
b--------------------------------------------------------|
g--------------------------------------------------------|
d---7--9----x----7--9------------------------------------|
a---5--7----x----5--7------------------------------------|
E-----------x--------------------------------------------|

The other parts played by the Heli Voice Box are D hammer E then slow bend whole tone 
A, ending in vibrato.
            

comments powered by Disqus
↑ Back to top | Misc Television Tabs for Intel Star Tv Ad. Lyrics for acoustic guitar and electric guitar. Tablatures and chords are parodies/interpretations of the original songs. You may use it for private study, scholarship, research or language learning purposes only