» » »

Misc Television, Inspector Gadget Tabs (ver.3)

Artists:  A B C D E F G H I J K L M N O P Q R S T U V W X Y Z # 

Inspector Gadget Tabs (ver.3)

Misc Television Tabs
 Rating:
4/5 (4 votes)
Inspector Gadget lessons Tabs too difficult? Try these video lessons and learn fast
                (Theme)
PROPS GO TO: Zoran Kenda

Inspector Gadget theme


e:---------------|---------------|----------------|----------------|
b:---------------|---------------|----------------|----------------|
g:---------------|----------2-1--|----------------|----------2-4---|
d:--------0-2----|------0-2------|------0-2-------|------0-2-------|
a:--0-2-3--------|0-2-3----------|0-2-3-----------|0-2-3-----------|
E:---------------|---------------|----------------|----------------|


e:----------------|--------------------------------|
b:----------------|--------------------------------|
g:----------------|--------------------------------|
d:7-6------5-4----|7-6----5-4----------------------|
a:----7--------5--|----7------5----8-7---6-7-6-----|
E:----------------|--------------------8-------7-6-|

                                        ~~~~
e:------------------------------------------------------   main theme
b:-----------------------------------10-9---------------
g:--------7-9----8---7-----------7-9--------------------
d:-7-9-10-----10---9---10-7-9-10------------------------
a:------------------------------------------------------
E:------------------------------------------------------
                                         uu uu

e:0---------|---------------------------------------------
b:1---3--5--|---------------------------------------------
g:2---4--6--|---------------------------------------------
d:----5--7--|---------------------------------------------
a:----------|---------------------------------------------
E:----------|-2-1-2-1-5-4-8-7-----------------------------
  ??        ................. p.m.      go gadget go


          . .         . .
e:--------------------------|-------------|-8-7-5-4-7-5-4-2-5-4-2-1...
b:--------------------------|-------------|------------------
g:4-5-5-4-------------------|-------------|------------------
d:--------7-6--9-9-7--5-4---|-------------|------------------
a:--------------------------|-------------|------------------
E:--------------------------|-2-1-5-4-8-7-|------------------
trumphets                                 | ........................p.m
                                          |something like that
            
Submit corrections

comments powered by Disqus
↑ Back to top | Misc Television Tabs for Inspector Gadget. Lyrics for acoustic guitar and electric guitar. Tablatures and chords are parodies/interpretations of the original songs. You may use it for private study, scholarship, research or language learning purposes only