» » »

How Not To Live Your Life Tabs (ver.2)

Artists:  A B C D E F G H I J K L M N O P Q R S T U V W X Y Z # 

How Not To Live Your Life Tabs (ver.2)

Misc Television
Rating:
0/5 (0 votes)

Hard to play? Try these video lessons and learn fast.
                (Theme)
-------------------------------------------------------------------------------
                             How Not To Live Your Life Theme Music - Ben Parker
-------------------------------------------------------------------------------

LISTEN TO SONG TO WORK OUT WHICH PARTS ARE WHICH        

Tuning: Standard

    (RHYTHM PART)
e|---------------------------------------------------------------------------|
B|---------------------------------------------------------------------------|
G|---------------------------------------------------------------------------|
D|--------------------------5------------------------------------------------|(x2)
A|------------------4---------------4---------4------------------------------|
E|--------------5-------5----------------5-----------------------------------|

e|---------------------------------------------------------------------------|
B|---------------------------------------------------------------------------|
G|---------------------------------------------------------------------------|
D|---------------------4-----------------------------------------------------|
A|-------------2---------------2---------2-----------------------------------|
E|---------3-------3----------------3----------------------------------------|

e|---------------------------------------------------------------------------|
B|---------------------------------------------------------------------------|
G|---------------------------------------------------------------------------|
D|-----------------------0---------------------------------------------------|
A|--------------0--------------0---------0-----------------------------------|
E|---------2---------2--------------2----------------------------------------|

e|---------------------------------------------------------------------------|
B|---------------------------------------------------------------------------|
G|---------------------------------------------------------------------------|
D|---------------------------------------------------------------------------|
A|---------------------------------------------------------------------------|
E|---------------------------------------------------------------------------|
   (HIGH PITCHED LEAD PART (my own version, for without slide), played over rhythm)
e|---------------------------------------------------------------------------|
B|---------------------------------------------------------------------------|
G|-------18--------------21p19-------18--------------------------------------|
D|-----------19--------------------------19-------------16-------19-------21-|
A|---------------------------------------------------------------------------|
E|---------------------------------------------------------------------------|

e|---------------------------------------------------------------------------|
B|---------------------------------------------------------------------------|
G|---18-------------------------------------------18----16-------------------|
D|-------19-----16----19-----21-------21------------------------19-----16----|
A|---------------------------------------------------------------------------|
E|---------------------------------------------------------------------------|

e|---------------------------------------------------------------------------|
B|---------------------------------------------------------------------------|
G|----------------------18----16---------------------------------------------|
D|-------21-----------------------------19-----16----------------------------|
A|---------------------------------------------------------------------------|
E|---------------------------------------------------------------------------|

e|---------------------------------------------------------------------------|
B|---------------------------------------------------------------------------|
G|-------18----------21p19-----18--------------------------------------------|
D|-----------19---------------------19---------------------------------------|
A|---------------------------------------------------------------------------|
E|---------------------------------------------------------------------------|
    PROPER HIGH PITCHED PART(Writer of music told me what actual tab was) W/GUITAR 
SLIDE BUT CAN BE PLAYED WITHOUT
e|---------------------------------------------------------------------------|
B|-----14----------------17/15---------------14------------------------------|
G|--------14------------------------------------14---------------11/14/16----|
D|---------------------------------------------------------------------------|
A|---------------------------------------------------------------------------|
E|---------------------------------------------------------------------------|

e|---------------------------------------------------------------------------|
B|-----14------------------------------------------14/12---------------------|
G|--------14------------11/14/16-------16--------------------14/11-----------|
D|---------------------------------------------------------------------------|
A|---------------------------------------------------------------------------|
E|---------------------------------------------------------------------------|

e|---------------------------------------------------------------------------|
B|------------------------14/12----------------------------------------------|
G|--------16-------------------------14/11-----------------------------------|
D|---------------------------------------------------------------------------|
A|---------------------------------------------------------------------------|
E|---------------------------------------------------------------------------|

e|---------------------------------------------------------------------------|
B|------14----------------17/15-------------14-------------------------------|
G|----------14----------------------------------14-----------11/14/16--------|
D|---------------------------------------------------------------------------|
A|---------------------------------------------------------------------------|
E|---------------------------------------------------------------------------|

************************************

| /   slide up
| \   slide down
| h   hammer-on
| p   pull-off
| ~   vibrato
| +   harmonic
| x   Mute note
| b   Bend
| pb  Pre-bend
| br  Bend release
| pbr Pre-bend release
| brb Bend release bend

************************************
            
Hard to play? Try these video lessons and learn fast. | Correct




comments powered by Disqus
↑ Back to top | Tablatures and chords are parodies/interpretations of the original songs. You may use it for private study, scholarship, research or language learning purposes only