» » »

Misc Television, Home And Away Tabs (ver.1)

Artists:  A B C D E F G H I J K L M N O P Q R S T U V W X Y Z # 

Home And Away Tabs (ver.1)

Misc Television Tabs
 Rating:
4/5 (4 votes)
Home And Away lessons Tabs too difficult? Try these video lessons and learn fast
1
                (Theme)
++++++++++++++++++++++++++++++++++++++++++++++++++++++++++++++++++++++++++++

Tuning:Standard

2009 HAA THEME

  At very beginning:
e|-------------------  for this part i use my 1st finger on the 5th and 7th--|
B|-------------------  frets and then mute the G with my 2nd. i find it eas--|
G|-0-0-0-x-x-x---------------------------------------------------------------|  ier.
D|-5-5-5-7-7-7---------------------------------------------------------------|
A|---------------------------------------------------------------------------|
E|---------------------------------------------------------------------------|

^^^MAKE SURE U DONT ACCIDENTLY
   HIT ANY NATURAL HARMONICS
   HERE OR IT WILL SOUND REALLY
   BAD. BE SURE TO MUTE THE G
   STRING AT THAT PART WITH THE X's

I cant figure out the chords/rythm but this is the melody/lead

e|--------------------------------------------------------------------------|
B|--------------------------------------------------------------------------|
G|--7----------7----9b11----7~--------------7---9b11-----7~-----------------|
D|--------9--------------------------9--------------------------------------|
A|--------------------------------------------------------------------------|
E|--------------------------------------------------------------------------|
  hold    me   in   your   arms     don't   let  me      go

Listen closely for these notes
                v                v                           v
e|--------------------------------------------------------------------------|
B|--------------------------------------------------------------------------|
G|--------------7\---4---------------------4---4---7-----4------------------|
D|-5------5-----9\---------5-5----------------------------------------------|
A|-------------------------------5b-------------------------5b--------------|
E|--------------------------------------------------------------------------|
   i     want   to  stay   forever         closer each  day

   hard 2 hear
   vvvvvvvvv
 blends wit chords
e|--------------------------------------------------------------------------|
B|--------------------------------------------------------------------------|
G|--5---5-------------------------7----4~~~~~~------------------------------|
D|------------------5-----5-------------------------------------------------|
A|--------------------------------------------------------------------------|
E|--------------------------------------------------------------------------|
                   home   and   away______________________

Thats it. soz ur gonna figure out the chords and cr*p urslef. HAVE FUN

| /  slide up
| \  slide down
| h  hammer-on
| p  pull-off
| ~  vibrato
| +  harmonic
| x  Mute note
++++++++++++++++++++++++++++++++++++++++++++++++++++++++++++++++++++++++++++
            
Submit corrections

comments powered by Disqus
↑ Back to top | Misc Television Tabs for Home And Away. Lyrics for acoustic guitar and electric guitar. 1 Tablatures and chords are parodies/interpretations of the original songs. You may use it for private study, scholarship, research or language learning purposes only