» » »

Misc Television, He Man And The Masters Of The Universe Tabs (ver.1)

Artists:  A B C D E F G H I J K L M N O P Q R S T U V W X Y Z # 

He Man And The Masters Of The Universe Tabs (ver.1)

Misc Television Tabs
 Rating:
4/5 (4 votes)
He Man And The Masters Of The Universe lessons Tabs too difficult? Try these video lessons and learn fast
                

Intro/1.Chorus


Rythm Guitar
            "He-man"
E--------|---------------------------------------------------| <--this is the intro which is actually
B--------|---------------------------------------------------|    the same as chorus..
G--------|--------------7------------------------------------|    repeat a few times.
D---3----|----(5)--7----7---7--5--7--------5--7---5--7-------|
A---3----|----(5)--7----5---7--5--7--------5--7---5--7-------|
E---1----|----(3)--5--------5--3--5--------3--5---3--5-------|


Solo Guitar

  
E-------------------|-----------------------------------|----------------------------------------|--------------------------------------|
B-------------------|---------------5-------------------|----------------------------------------|---------------5----------------------|
G---9----11---9---7-|--9--------5-------7--5--4---------|---9---------9--11--9------9------------|--9--------5-------7--5--4------------|
D-------------------|-------7--------------------7---5--|-----------------------12-------12------|-------7--------------------7---5-----|
A-------------------|-----------------------------------|----------------------------------------|--------------------------------------|
E-------------------|-----------------------------------|----------------------------------------|--------------------------------------| 
                                               
                                             




Verse

   C                  F        C          F        C        G
E------------------------------------------------------------------|-------------| 
B------------------------------------------------------------------|-------------|    
G------------------------------------------------------------------|-------------|    
D--5--5--5--5------5--7--5-----5-------5--7--5-----5---------------|------6------|<--play this chord at the very end
A---------------7-----------8-----7-------------8-----7--3--5------|------5------|   of the verse
E------------------------------------------------------------------|-------------|
                         x4





2.Chorus                                                   


Rythm Guitar                                                 Bridge                                                

E---------------------------------------------------------|--------------------------------|
B---------------------------------------------------------|--------------------------------|    
G-------------------------------------7--7--x-------------|--------------------------------|    
D---x--7--7--7--7--3--3--x--7---7--7--7--7--x--7---7--7---|---3--3--4--4--5--5--6--6--7----|
A---x--7--7--7--7--3--3--x--7---7--7--5--5--x--7---7--5---|---3--3--4--4--5--5--6--6--7----|
E---x--5--5--5--5--1--1--x--5---5--5-----------5---5--5---|---1--1--2--2--3--3--4--4--5----|






Solo Guitar                                                  

E---------------------------------------------------------|---------------------------------------------|
B---------------------------------------------------------|---------------------------------------3--5--|    
G------9--9--9--9--10--10---9---9--9---11--11---9---9--9--|------2--------2--------2--4--2--4--5--------|    
D---------------------------------------------------------|---3-----3--4-----4--5-----------------------|
A---------------------------------------------------------|---------------------------------------------|
E---------------------------------------------------------|---------------------------------------------|






E-------------|-------------|
B-------------|-------------|
G-------------|-------------|<--these are the last chords
D----5---3----|----5---7----|   played in the theme
A----5---3----|----5---7----|
E----3---1----|----3---5----|



To get the right timing listen to the theme. Even if it's hard to replace an orchestra with a guitar..it's possible ;)
            
Submit corrections

comments powered by Disqus
↑ Back to top | Misc Television Tabs for He Man And The Masters Of The Universe. Lyrics for acoustic guitar and electric guitar. Tablatures and chords are parodies/interpretations of the original songs. You may use it for private study, scholarship, research or language learning purposes only