>
 >
Grange Hill Theme 1

Grange Hill Theme 1 Guitar Tabs

Misc Television - Grange Hill Theme 1 chords, tabs, tablatures, lyrics

Guitar lessons | Add/correct | Request | Top 50 tabs Artists:  A B C D E F G H I J K L M N O P Q R S T U V W X Y Z 0-9

Grange Hill Theme 1 Guitar Tabs – Misc Television

CD, Sheet music, Poster

Do you like Grange Hill Theme 1? Share with your friends now
TabsTabs v2
Gtr I (E A D G B E) - 'Clean Guitar'
Gtr II (E A D G B E) - 'Dirty Guitar'

  Q=100
 4/4
  Gtr I
   S  S S   S E  E  +H          W
|-17s19---/13---10-(10)----||-----------------------------------|
|--------------------------||o----------------------------------|
|-17s19---/14---11-(11)----||-----------------------------------|
|--------------------------||-----------------------------------|
|--------------------------||o----------------------------------|
|--------------------------||-----------------------------------|
|
| Gtr II
|  W                            E  E  S  S  E  S  S  S  S  E  E
|--------------------------||--------------10-------------------|
|--------------------------||o----------------10-12-------------|
|--------------------------||--------10h11----------10-11-------|
|--------------------------||--12-12----------------------12-10-|
|--------------------------||o----------------------------------|
|--------------------------||-----------------------------------|


   W
|---------------------------||
|--------------------------o||
|---------------------------||
|---------------------------||
|--------------------------o||
|---------------------------||
|
|  e  e  S  S  E E  E.  E.
|---------------------------||
|-------------10-----------o||
|-------10-11---------------||
|-12-12------------10--11---||
|--------------------------o||
|---------------------------||


    $
     E  E  S  S  E  +H                    +W
||-------------------------------------|------------------------------------|
||o--7s10-12----13-(13)----------------|-(13)-------------------------------|
||-------------------------------------|------------------------------------|
||---4s=7--9----10-(10)----------------|-(10)-------------------------------|
||o------------------------------------|------------------------------------|
||-------------------------------------|------------------------------------|
|
|   Gtr II
|    E  E  S  S  E   S   S  S  S  E  E     e   e  S  S  E  S  S  E  S  S  E
||-------------------------------------|------------------------------------|
||o-----------------10--12-------------|------------------------------------|
||--------10h11------------10-11-------|---------10h11----10h11-------------|
||--12-12-------12---------------12-10-|--12--12-------12-------12----------|
||o------------------------------------|---------------------------11-12-12-|
||-------------------------------------|------------------------------------|


   E  E   S  S  E +H                   +W
|------------------------------------|------------------------------------||
|-10s12------------------------------|-----------------------------------o||
|-------/10-----7-(7)----------------|-(7)--------------------------------||
|--7s=9------------------------------|------------------------------------||
|--------/8-----5-(5)----------------|-(5)-------------------------------o||
|------------------------------------|------------------------------------||
|
| Gtr II
|  E  E   S  S  E  S   S  S  S  E  E    e   e  S  S  E  S  S  E  S  S  E
|------------------------------------|------------------------------------||
|-----------------10--12-------------|-----------------------------------o||
|--------10h11-----------10-11-------|--------10h11----10h11--------------||
|-12-12--------12--------------12-10-|-12--12-------12-------12-----------||
|------------------------------------|--------------------------11-12-12-o||
|------------------------------------|------------------------------------||


    E E E E +Q   E E     E E +Q    S S S  S S S e    E E E E +H
|--------------------|-----8-(8)-----8------------|----5-6-7-(7)----|
|-/10-8-6--------6-8-|-/10--------10-----10-8-6-8-|--6--------------|
|---------7-(7)------|-----5-(5)-----5------------|----2-3-4-(4)----|
|--/7-5-3--------3-5-|--/7---------7------7-5-3-5-|--3--------------|
|---------5-(5)------|----------------------------|-----------------|
|--------------------|----------------------------|-----------------|
|
| Gtr II
|                                                    ~~
|   E E E E +Q   E E     E E  Q    S S S  S S S e    W
|--------------------|----------------------------|-----------------|
|--------------------|----------------------------|-----------------|
|--------------------|-----5----------------------|-10--------------|
|--/7-5-3--------3-5-|---7------------------------|-----------------|
|---------5-(5)------|---------------3------------|-----------------|
|--------------------|-------------5------5s3p1-3-|-----------------|


                    D.S.
    W                      S  S S   S E  E  +H
|-----------------------|-17s19---/13---10-(10)----*|
|-----------------------|--------------------------*|
|-----------------------|-17s19---/14---11-(11)----*|
|-----------------------|--------------------------*|
|-----------------------|--------------------------*|
|-----------------------|--------------------------*|
|
| Gtr II
|             ~~~~~~~
|   E.  S  E  E  +H        W
|-----------------------|--------------------------*|
|-----------------------|--------------------------*|
|-/15--15-15-14-(14)----|--------------------------*|
|-----------------------|--------------------------*|
|-----------------------|--------------------------*|
|-----------------------|--------------------------*|



Duration Legend
---------------
W - whole; H - half; Q - quarter; E - 8th; S - 16th; T - 32nd; X - 64th; a - acciaccatura
+ - note tied to previous; . - note dotted; .. - note double dotted
Uncapitalized letters represent notes that are staccato (1/2 duration)
Irregular groupings are notated above the duration line
Duration letters will always appear directly above the note/fret number it represents the
duration for.  Duration letters with no fret number below them represent rests.  Multi-
bar rests are notated in the form Wxn, where n is the number of bars to rest for.  Low
melody durations appear below the staff

Tablature Legend
----------------
 h   - hammer-on
 p   - pull-off
 b   - bend
 pb  - pre-bend
 r   - bend release (if no number after the r, then release immediately)
 /\  - slide into or out of (from/to "nowhere")
 s   - legato slide
 S   - shift slide
 - natural harmonic
[n]  - artificial harmonic
n(n) - tapped harmonic
 ~   - vibrato
 tr  - trill
 T   - tap
 TP  - trem. picking
 PM  - palm muting
\n/  - tremolo bar dip; n = amount to dip
 \n  - tremolo bar down
 n/  - tremolo bar up
/n\  - tremolo bar inverted dip
 =   - hold bend; also acts as connecting device for hammers/pulls
 <> - volume swell (louder/softer)
 x   - on rhythm slash represents muted slash
 o   - on rhythm slash represents single note slash

Misc Legend
-----------
 |  - bar
||  - double bar
||o - repeat start
o|| - repeat end
*|  - double bar (ending)
 :  - bar (freetime)
 $  - Segno
 &  - Coda
Tempo markers -  = BPM(8/16=s8/s16), where s8 = swing 8ths, s16 = swing 16ths





Comments


Popular Misc Television tabs & chords
12-makoto Kawamoto Chords
Suburgatory Theme 1 Chords
Barney Theme Tabs
I Spy Theme Tabs
King Of The Hill Tabs
Peanuts Tabs
Power Rangers Theme 1 Tabs
Smackdown Theme Tabs
Smoking Room Theme Tabs
X Files Tabs


Song lyrics



↑ Back to top | Tablatures and chords are parodies/interpretations of the original songs. You may use it for private study, scholarship, research or language learning purposes only
© 2014 AZChords.com Contact us | Privacy policy | DMCA | Add/correct tabs | Request tabs | Top 50 tabs