» » »

Grange Hill Tabs (ver.1)

Artists:  A B C D E F G H I J K L M N O P Q R S T U V W X Y Z # 

Grange Hill Tabs (ver.1)

Misc Television
Rating:
0/5 (0 votes)

Tabs too difficult? Try these video lessons and learn fast.
                (Theme)
...GRANGE HILL THEME... TV Theme
-----------------------.........

*from the TV Series 1977*


*INSTRUMENTAL*


Intro:

e|-------------|
B|--5-7--------|
G|-------5-----|
D|----------7--|
A|-------------|
E|-------------|

*(Rhythm Guitar):

A7, (G7, Ab7) (x2)

*(Lead Riff):

    A7
e|------------|-------------|
B|-----5-7-8--|--5-7--------|
G|--6---------|-------5-----|
D|------------|----------7--|
A|------------|-------------|
E|------------|-------------| (x2)

    D7              Eb7 E7
e|-------------|-------------|-----------------|
B|--5----------|--------5-8--|--5-8-8----------|
G|-----7-5-----|--5-7--------|---------7-5-----|
D|----------7--|-------------|--------------7--|
A|-------------|-------------|-----------------|
E|-------------|-------------|-----------------|

    D7 Eb7 E7    E7 Eb7 D7            A7
e|------------|------------|-------------|
B|--5--6---7--|--7--6---5--|--5-7--------|
G|------------|------------|-------5-----|
D|------------|------------|----------7--|
A|------------|------------|-------------|
E|------------|------------|-------------|

(Repeat)


CHORD DIAGRAMS:
---------------

   A7      G7      Ab7     D7      Eb7     E7

 EADGBE  EADGBE  EADGBE  EADGBE  EADGBE  EADGBE
 575655  353433  464544  x545xx  x656xx  0767xx
            
Tabs too difficult? Try these video lessons and learn fast.


comments powered by Disqus
↑ Back to top | Tablatures and chords are parodies/interpretations of the original songs. You may use it for private study, scholarship, research or language learning purposes only