>
 >
Grandstand Theme

Grandstand Theme Guitar Tabs

Misc Television - Grandstand Theme chords, tabs, tablatures, lyrics

Guitar lessons | Add/correct | Request | Top 50 tabs Artists:  A B C D E F G H I J K L M N O P Q R S T U V W X Y Z 0-9

Grandstand Theme Guitar Tabs – Misc Television

CD, Sheet music, Poster

Do you like Grandstand Theme? Share with your friends now
Tabs
Granstand Theme (Short Version)

Arranged for Solo Guitar by Matthew Guy

Standard Tuning : EADGBE

Original Composer: Keith Mansfield

Notes:

Lots of inversions of chords in this.
Some of the changes are quite tricky, or rather I find a bit tricky (B7 -> Em7/G6 is one)

Not all of the fills are in this tab - you'll just have to work those out.

Have fun!


                    Em7             G          D/F#
E||-----------------0---0-0-0-0--|------------------2-----|
B||-----------------3---3-3-3-3--|--3----3--2--3-------3--|
G||-----------------0---0-0-0-0--|--0----------2----------|
D||-----------------2---2-2-2-2--|--0----------0----------|
A||-----------------2---2-2-2-2--|--2----------0----------|
E||-----0-----0-----0---0-0-0-0--|--3----------2----------|
        PM    PM


     Em7                        G          D/F#         
-----0------0-----0-0-0-0-0--|------------------2-----|
--0--3------3-----3-3-3-3-3--|--3----3--2--3-------3--|
-----0------0-----0-0-0-0-0--|--0----------2----------|
-----2------2-----2-2-2-2-2--|--0----------0----------|
-----2------2-----2-2-2-2-2--|--2----------0----------|
-----0------0-----0-0-0-0-0--|--3----------2----------|


     Em7/G6    D     G  G       C                       
-----3---------2-------------|--0-----------0-0-0-0-0--|
--0--3---------3-----3--0----|--1-----------1-1-1-1-1--|
-----0---------2-----0--0----|--0-----------0-0-0-0-0--|
-----2---------0-----0--0----|--2-----------2-2-2-2-2--|
-----2---------------2--2----|--3-----------3-3-3-3-3--|
-----0------0-----2--3-------|-------------------------|


  A7                        D       G    D          D       G    D        
--0-----------0-0-0-0-0--|--2----2--3----2-------|--2----2--3----2-------|
--2-----------2-2-2-2-2--|--3----3--3----3-------|--3----3--3----3-------|
--0-----------0-0-0-0-0--|--2----2--4----2-------|--2----2--4----2-------|
--2-----------2-2-2-2-2--|--0----0--0----0-------|--0----0--0----0-------|
--0-----------0-0-0-0-0--|-----------------------|-----------------------|
-------------------------|-----------------------|-----------------------|


  D       G    D          F#m     Bm   F#m        G       C    G        
--2----2--3----2-------|--2----2--2----2-------|--3----3--3----3-------|
--3----3--3----3-------|--2----2--3----2-------|--3----3--5----3-------|
--2----2--4----2-------|--2----2--4----2-------|--4----4--5----4-------|
--0----0--0----0-------|--4----4--4----4-------|--0----0-------0-------|
-----------------------|-----------------------|-----------------------|
-----------------------|-----------------------|-----------------------|


     D  A     Bm A           D       G    D          F#m     Bm   F#m      
--------------------------|--2----2--3----2-------|--2----2--2----2-------|
-----7--5-----3--2--------|--3----3--3----3-------|--2----2--3----2-------|
-----7--6-----4--2--------|--2----2--4----2-------|--2----2--4----2-------|
-----7--7-----4--2--------|--0----0--0----0-------|--4----4--4----4-------|
--------------------0-----|-----------------------|-----------------------|
--------------------------|-----------------------|-----------------------|


  G       C    G              D   A     Bm A                    B7            
--3----3--3----3-------|-----10---9-----7--5--------|-----------2--------2---|
--3----3--5----3-------|-----10--10-----7--5--------|-----------0--------0---|
--4----4--5----4-------|-----11---9-----7--6--------|-----------2--------2---|
--0----0-------0-------|----------------------------|--2--------1--------1---|
-----------------------|----------------------0--4--|-----2-----2--------2---|
-----------------------|----------------------------|------------------------|


  Em7/G6                     A                      D                      
--3------3--3-------0-----|--0-------------------|--2----2--2-------------|
--3------3--3----------3--|--2-------------------|--3----3--3-------3--2--|
--0------0--0-------------|--2-------------------|--2----2--2-------------|
--2------2--2-------------|--2----------------2--|--0----0--0-------------|
--2------2--2-------------|--0--------0----4-----|------------------------|
--0------0--0-------------|----------------------|------------------------|


  G                      C                        F#                    
--3-------------------|--0----0--0-------------|--2--------------2--0--|
--0-------------------|--1----1--1-----1--0----|--2--------------------|
--0-------------------|--0----0--0-------------|--3--------------------|
--0----------------0--|--2----2--2-------------|--4--------------------|
--2-------------2-----|--3----3--3-------------|--4--------------------|
--3--------3----------|------------------------|--2--------------------|


                                      B7              Em7/G6                   
--------------2----0-----|------------2--------2---|--3------3--3-------0-----|
--3-----2--0----------3--|------------0--------0---|--3------3--3----------3--|
-------------------------|--4-2-4-----2--------2---|--0------0--0-------------|
-------------------------|------------1--------1---|--2------2--2-------------|
-------------------------|------------2--------2---|--2------2--2-------------|
-------------------------|-------------------------|--0------0--0-------------|


  A                      D                   Em7                            
--0-------------------|--2----2--3--2-----0--0---|--------------0-0-0-0-0--|
--2-------------------|--3-------------------3---|--------------3-3-3-3-3--|
--2-------------------|--2-------------------0---|--------------0-0-0-0-0--|
--2----------------2--|--0-------------------2---|--------------2-2-2-2-2--|
--0--------0----4-----|----------------------2---|--------------2-2-2-2-2--|
----------------------|----------------------0---|--------------0-0-0-0-0--|


  G          D/F#             Em7                        G          D/F#        
------------------2-----|-----0------0-----0-0-0-0-0--|------------------2-----|
--3----3--2--3-------3--|--0--3------3-----3-3-3-3-3--|--3----3--2--3-------3--|
--0----------2----------|-----0------0-----0-0-0-0-0--|--0----------2----------|
--0----------0----------|-----2------2-----2-2-2-2-2--|--0----------0----------|
--2----------0----------|-----2------2-----2-2-2-2-2--|--2----------0----------|
--3----------2----------|-----0------0-----0-0-0-0-0--|--3----------2----------|


     Em7/G6    D     G  G       C                       
-----3---------2-------------|--0-----------0-0-0-0-0--|
--0--3---------3-----3--0----|--1-----------1-1-1-1-1--|
-----0---------2-----0--0----|--0-----------0-0-0-0-0--|
-----2---------0-----0--0----|--2-----------2-2-2-2-2--|
-----2---------0-----2--2----|--3-----------3-3-3-3-3--|
-----0------0-----2--3-------|-------------------------|


  A7                                                    D5                  
--0-----------0-0-0-0-0--|------------------2-----|-----------------------||
--2-----------2-2-2-2-2--|--3----3--2--3-------3--|--0--3-----3-----------||
--0-----------0-0-0-0-0--|------------------------|-----2-----2-----------||
--2-----------2-2-2-2-2--|------------------------|-----0-----0-----------||
--0-----------0-0-0-0-0--|------------------------|-----0-----0-----------||
-------------------------|------------------------|-----------------------||





Comments


Popular Misc Television tabs & chords
Nashville - Sideshow Chords
Reading Rainbow Theme 1 Chords
Black Books Tabs
Chihuahua Theme Tabs
Eurovision Theme 2 Tabs
Hawai Five Tabs
Spongebob Squarepants Theme Tabs
This Buds For You Tabs
Why Do Birds Suddenly Appear Tabs
Aqua Marina Theme Ukulele


Song lyrics



↑ Back to top | Tablatures and chords are parodies/interpretations of the original songs. You may use it for private study, scholarship, research or language learning purposes only
© 2014 AZChords.com Contact us | Privacy policy | DMCA | Add/correct tabs | Request tabs | Top 50 tabs